  0
SECTION
  2
HEADER
  9
$ACADVER
  1
AC1015
  9
$ACADMAINTVER
 70
     6
  9
$DWGCODEPAGE
  3
ANSI_1254
  9
$INSBASE
 10
0.0
 20
0.0
 30
0.0
  9
$EXTMIN
 10
0.0
 20
0.0
 30
0.0
  9
$EXTMAX
 10
279.4
 20
215.9
 30
0.0
  9
$LIMMIN
 10
0.0
 20
0.0
  9
$LIMMAX
 10
279.4
 20
215.9
  9
$ORTHOMODE
 70
     0
  9
$REGENMODE
 70
     1
  9
$FILLMODE
 70
     1
  9
$QTEXTMODE
 70
     0
  9
$MIRRTEXT
 70
     1
  9
$LTSCALE
 40
1.0
  9
$ATTMODE
 70
     1
  9
$TEXTSIZE
 40
3.5
  9
$TRACEWID
 40
1.0
  9
$TEXTSTYLE
  7
Standard
  9
$CLAYER
  8
0
  9
$CELTYPE
  6
ByLayer
  9
$CECOLOR
 62
   256
  9
$CELTSCALE
 40
1.0
  9
$DISPSILH
 70
     0
  9
$DIMSCALE
 40
1.0
  9
$DIMASZ
 40
3.5
  9
$DIMEXO
 40
1.0
  9
$DIMDLI
 40
3.75
  9
$DIMRND
 40
0.0
  9
$DIMDLE
 40
0.0
  9
$DIMEXE
 40
1.0
  9
$DIMTP
 40
0.0
  9
$DIMTM
 40
0.0
  9
$DIMTXT
 40
3.5
  9
$DIMCEN
 40
2.5
  9
$DIMTSZ
 40
0.0
  9
$DIMTOL
 70
     0
  9
$DIMLIM
 70
     0
  9
$DIMTIH
 70
     1
  9
$DIMTOH
 70
     1
  9
$DIMSE1
 70
     0
  9
$DIMSE2
 70
     0
  9
$DIMTAD
 70
     1
  9
$DIMZIN
 70
     0
  9
$DIMBLK
  1

  9
$DIMASO
 70
     1
  9
$DIMSHO
 70
     1
  9
$DIMPOST
  1

  9
$DIMAPOST
  1

  9
$DIMALT
 70
     0
  9
$DIMALTD
 70
     3
  9
$DIMALTF
 40
0.0393700787
  9
$DIMLFAC
 40
1.0
  9
$DIMTOFL
 70
     1
  9
$DIMTVP
 40
0.0
  9
$DIMTIX
 70
     0
  9
$DIMSOXD
 70
     0
  9
$DIMSAH
 70
     0
  9
$DIMBLK1
  1

  9
$DIMBLK2
  1

  9
$DIMSTYLE
  2
ISO-25
  9
$DIMCLRD
 70
     0
  9
$DIMCLRE
 70
     0
  9
$DIMCLRT
 70
     0
  9
$DIMTFAC
 40
1.0
  9
$DIMGAP
 40
1.524
  9
$DIMJUST
 70
     0
  9
$DIMSD1
 70
     0
  9
$DIMSD2
 70
     0
  9
$DIMTOLJ
 70
     0
  9
$DIMTZIN
 70
     0
  9
$DIMALTZ
 70
     0
  9
$DIMALTTZ
 70
     0
  9
$DIMUPT
 70
     0
  9
$DIMDEC
 70
     2
  9
$DIMTDEC
 70
     2
  9
$DIMALTU
 70
     2
  9
$DIMALTTD
 70
     3
  9
$DIMTXSTY
  7
Standard
  9
$DIMAUNIT
 70
     0
  9
$DIMADEC
 70
     2
  9
$DIMALTRND
 40
0.0
  9
$DIMAZIN
 70
     0
  9
$DIMDSEP
 70
    44
  9
$DIMATFIT
 70
     3
  9
$DIMFRAC
 70
     0
  9
$DIMLDRBLK
  1

  9
$DIMLUNIT
 70
     2
  9
$DIMLWD
 70
    -2
  9
$DIMLWE
 70
    -2
  9
$DIMTMOVE
 70
     0
  9
$LUNITS
 70
     2
  9
$LUPREC
 70
     2
  9
$SKETCHINC
 40
1.0
  9
$FILLETRAD
 40
10.0
  9
$AUNITS
 70
     0
  9
$AUPREC
 70
     2
  9
$MENU
  1
.
  9
$ELEVATION
 40
0.0
  9
$PELEVATION
 40
0.0
  9
$THICKNESS
 40
0.0
  9
$LIMCHECK
 70
     0
  9
$CHAMFERA
 40
0.0
  9
$CHAMFERB
 40
0.0
  9
$CHAMFERC
 40
0.0
  9
$CHAMFERD
 40
0.0
  9
$SKPOLY
 70
     0
  9
$TDCREATE
 40
2459741.592567639
  9
$TDUCREATE
 40
2459741.467567639
  9
$TDUPDATE
 40
2459741.592570324
  9
$TDUUPDATE
 40
2459741.467570324
  9
$TDINDWG
 40
0.0000000116
  9
$TDUSRTIMER
 40
0.0000000116
  9
$USRTIMER
 70
     1
  9
$ANGBASE
 50
0.0
  9
$ANGDIR
 70
     0
  9
$PDMODE
 70
     0
  9
$PDSIZE
 40
-1.0
  9
$PLINEWID
 40
0.0
  9
$SPLFRAME
 70
     0
  9
$SPLINETYPE
 70
     6
  9
$SPLINESEGS
 70
     8
  9
$HANDSEED
  5
208
  9
$SURFTAB1
 70
     6
  9
$SURFTAB2
 70
     6
  9
$SURFTYPE
 70
     6
  9
$SURFU
 70
     6
  9
$SURFV
 70
     6
  9
$UCSBASE
  2

  9
$UCSNAME
  2

  9
$UCSORG
 10
0.0
 20
0.0
 30
0.0
  9
$UCSXDIR
 10
1.0
 20
0.0
 30
0.0
  9
$UCSYDIR
 10
0.0
 20
1.0
 30
0.0
  9
$UCSORTHOREF
  2

  9
$UCSORTHOVIEW
 70
     0
  9
$UCSORGTOP
 10
0.0
 20
0.0
 30
0.0
  9
$UCSORGBOTTOM
 10
0.0
 20
0.0
 30
0.0
  9
$UCSORGLEFT
 10
0.0
 20
0.0
 30
0.0
  9
$UCSORGRIGHT
 10
0.0
 20
0.0
 30
0.0
  9
$UCSORGFRONT
 10
0.0
 20
0.0
 30
0.0
  9
$UCSORGBACK
 10
0.0
 20
0.0
 30
0.0
  9
$PUCSBASE
  2

  9
$PUCSNAME
  2

  9
$PUCSORG
 10
0.0
 20
0.0
 30
0.0
  9
$PUCSXDIR
 10
1.0
 20
0.0
 30
0.0
  9
$PUCSYDIR
 10
0.0
 20
1.0
 30
0.0
  9
$PUCSORTHOREF
  2

  9
$PUCSORTHOVIEW
 70
     0
  9
$PUCSORGTOP
 10
0.0
 20
0.0
 30
0.0
  9
$PUCSORGBOTTOM
 10
0.0
 20
0.0
 30
0.0
  9
$PUCSORGLEFT
 10
0.0
 20
0.0
 30
0.0
  9
$PUCSORGRIGHT
 10
0.0
 20
0.0
 30
0.0
  9
$PUCSORGFRONT
 10
0.0
 20
0.0
 30
0.0
  9
$PUCSORGBACK
 10
0.0
 20
0.0
 30
0.0
  9
$USERI1
 70
     0
  9
$USERI2
 70
     0
  9
$USERI3
 70
     0
  9
$USERI4
 70
     0
  9
$USERI5
 70
     0
  9
$USERR1
 40
0.0
  9
$USERR2
 40
0.0
  9
$USERR3
 40
0.0
  9
$USERR4
 40
0.0
  9
$USERR5
 40
0.0
  9
$WORLDVIEW
 70
     1
  9
$SHADEDGE
 70
     3
  9
$SHADEDIF
 70
    70
  9
$TILEMODE
 70
     1
  9
$MAXACTVP
 70
    64
  9
$PINSBASE
 10
0.0
 20
0.0
 30
0.0
  9
$PLIMCHECK
 70
     0
  9
$PEXTMIN
 10
1.0000000000E+20
 20
1.0000000000E+20
 30
1.0000000000E+20
  9
$PEXTMAX
 10
-1.0000000000E+20
 20
-1.0000000000E+20
 30
-1.0000000000E+20
  9
$PLIMMIN
 10
0.0
 20
0.0
  9
$PLIMMAX
 10
420.0
 20
297.0
  9
$UNITMODE
 70
     0
  9
$VISRETAIN
 70
     1
  9
$PLINEGEN
 70
     0
  9
$PSLTSCALE
 70
     1
  9
$TREEDEPTH
 70
  3020
  9
$CMLSTYLE
  2
Standard
  9
$CMLJUST
 70
     0
  9
$CMLSCALE
 40
20.0
  9
$PROXYGRAPHICS
 70
     1
  9
$MEASUREMENT
 70
     1
  9
$CELWEIGHT
370
    -1
  9
$ENDCAPS
280
     0
  9
$JOINSTYLE
280
     0
  9
$LWDISPLAY
290
     1
  9
$INSUNITS
 70
     4
  9
$HYPERLINKBASE
  1

  9
$STYLESHEET
  1

  9
$XEDIT
290
     1
  9
$CEPSNTYPE
380
     0
  9
$PSTYLEMODE
290
     1
  9
$FINGERPRINTGUID
  2
{4e221d0e-b7ed-4cb2-9f87-8333add36ac9}
  9
$VERSIONGUID
  2
{FAEB1C32-E019-11D5-929B-00C0DF256EC4}
  9
$EXTNAMES
290
     1
  9
$PSVPSCALE
 40
0.0
  9
$OLESTARTUP
290
     0
  0
ENDSEC
  0
SECTION
  2
CLASSES
  0
CLASS
  1
ACDBDICTIONARYWDFLT
  2
AcDbDictionaryWithDefault
  3
ObjectDBX Classes
 90
        0
280
     0
281
     0
  0
CLASS
  1
VISUALSTYLE
  2
AcDbVisualStyle
  3
ObjectDBX Classes
 90
     4095
280
     0
281
     0
  0
CLASS
  1
MATERIAL
  2
AcDbMaterial
  3
ObjectDBX Classes
 90
     1153
280
     0
281
     0
  0
CLASS
  1
SCALE
  2
AcDbScale
  3
ObjectDBX Classes
 90
     1153
280
     0
281
     0
  0
CLASS
  1
TABLESTYLE
  2
AcDbTableStyle
  3
ObjectDBX Classes
 90
     4095
280
     0
281
     0
  0
CLASS
  1
MLEADERSTYLE
  2
AcDbMLeaderStyle
  3
ACDB_MLEADERSTYLE_CLASS
 90
     4095
280
     0
281
     0
  0
CLASS
  1
SUN
  2
AcDbSun
  3
SCENEOE
 90
     1153
280
     0
281
     0
  0
CLASS
  1
ACDBPLACEHOLDER
  2
AcDbPlaceHolder
  3
ObjectDBX Classes
 90
        0
280
     0
281
     0
  0
CLASS
  1
LAYOUT
  2
AcDbLayout
  3
ObjectDBX Classes
 90
        0
280
     0
281
     0
  0
ENDSEC
  0
SECTION
  2
TABLES
  0
TABLE
  2
VPORT
  5
8
330
0
100
AcDbSymbolTable
 70
     1
  0
VPORT
  5
29
330
8
100
AcDbSymbolTableRecord
100
AcDbViewportTableRecord
  2
*Active
 70
     0
 10
0.0
 20
0.0
 11
1.0
 21
1.0
 12
139.7
 22
107.95
 13
0.0
 23
0.0
 14
10.0
 24
10.0
 15
10.0
 25
10.0
 16
0.0
 26
0.0
 36
1.0
 17
0.0
 27
0.0
 37
0.0
 40
215.9
 41
1.2941176471
 42
50.0
 43
0.0
 44
0.0
 50
0.0
 51
0.0
 71
     0
 72
  2000
 73
     1
 74
     3
 75
     0
 76
     0
 77
     0
 78
     0
281
     0
 65
     1
110
0.0
120
0.0
130
0.0
111
1.0
121
0.0
131
0.0
112
0.0
122
1.0
132
0.0
 79
     0
146
0.0
  0
ENDTAB
  0
TABLE
  2
LTYPE
  5
5
330
0
100
AcDbSymbolTable
 70
     6
  0
LTYPE
  5
14
330
5
100
AcDbSymbolTableRecord
100
AcDbLinetypeTableRecord
  2
ByBlock
 70
     0
  3

 72
    65
 73
     0
 40
0.0
  0
LTYPE
  5
15
330
5
100
AcDbSymbolTableRecord
100
AcDbLinetypeTableRecord
  2
ByLayer
 70
     0
  3

 72
    65
 73
     0
 40
0.0
  0
LTYPE
  5
16
330
5
100
AcDbSymbolTableRecord
100
AcDbLinetypeTableRecord
  2
Continuous
 70
     0
  3
Solid line
 72
    65
 73
     0
 40
0.0
  0
LTYPE
  5
6E
330
5
100
AcDbSymbolTableRecord
100
AcDbLinetypeTableRecord
  2
HIDDEN
 70
     0
  3
Hidden __ __ __ __ __ __ __ __ __ __ __ __ __ __
 72
    65
 73
     2
 40
1.905
 49
1.27
 74
     0
 49
-0.635
 74
     0
  0
LTYPE
  5
6F
330
5
100
AcDbSymbolTableRecord
100
AcDbLinetypeTableRecord
  2
PHANTOM
 70
     0
  3
Phantom ______  __  __  ______  __  __  ______
 72
    65
 73
     6
 40
12.7
 49
6.35
 74
     0
 49
-1.27
 74
     0
 49
1.27
 74
     0
 49
-1.27
 74
     0
 49
1.27
 74
     0
 49
-1.27
 74
     0
  0
LTYPE
  5
70
330
5
100
AcDbSymbolTableRecord
100
AcDbLinetypeTableRecord
  2
CENTER
 70
     0
  3
Center ____ _ ____ _ ____ _ ____ _ ____ _ ____
 72
    65
 73
     4
 40
10.16
 49
6.35
 74
     0
 49
-1.27
 74
     0
 49
1.27
 74
     0
 49
-1.27
 74
     0
  0
LTYPE
  5
71
330
5
100
AcDbSymbolTableRecord
100
AcDbLinetypeTableRecord
  2
CENTERX2
 70
     0
  3
Center (2x) ________  __  ________  __  _____
 72
    65
 73
     4
 40
20.32
 49
12.7
 74
     0
 49
-2.54
 74
     0
 49
2.54
 74
     0
 49
-2.54
 74
     0
  0
LTYPE
  5
72
330
5
100
AcDbSymbolTableRecord
100
AcDbLinetypeTableRecord
  2
DOT2
 70
     0
  3
Dot (.5x) ........................................
 72
    65
 73
     2
 40
0.635
 49
0.0
 74
     0
 49
-0.635
 74
     0
  0
ENDTAB
  0
TABLE
  2
LAYER
  5
2
330
0
100
AcDbSymbolTable
 70
    17
  0
LAYER
  5
10
330
2
100
AcDbSymbolTableRecord
100
AcDbLayerTableRecord
  2
0
 70
     0
 62
     7
  6
Continuous
370
    -3
390
F
  0
LAYER
  5
73
330
2
100
AcDbSymbolTableRecord
100
AcDbLayerTableRecord
  2
FORMAT
 70
     0
 62
     7
  6
Continuous
370
    -3
390
F
  0
LAYER
  5
74
330
2
100
AcDbSymbolTableRecord
100
AcDbLayerTableRecord
  2
YARDIMCI_GEOMETRI
 70
     0
 62
    -6
  6
Continuous
290
     0
370
    -3
390
F
  0
LAYER
  5
75
330
2
100
AcDbSymbolTableRecord
100
AcDbLayerTableRecord
  2
SAYFA_CERCEVESI
 70
     0
 62
     7
  6
Continuous
370
    25
390
F
  0
LAYER
  5
76
330
2
100
AcDbSymbolTableRecord
100
AcDbLayerTableRecord
  2
ANTET
 70
     0
 62
     7
  6
Continuous
370
    -3
390
F
  0
LAYER
  5
77
330
2
100
AcDbSymbolTableRecord
100
AcDbLayerTableRecord
  2
OLCU
 70
     0
 62
   150
  6
Continuous
370
    -3
390
F
  0
LAYER
  5
78
330
2
100
AcDbSymbolTableRecord
100
AcDbLayerTableRecord
  2
METIN
 70
     0
 62
    96
  6
Continuous
370
    -3
390
F
  0
LAYER
  5
79
330
2
100
AcDbSymbolTableRecord
100
AcDbLayerTableRecord
  2
BALON
 70
     0
 62
     5
  6
Continuous
370
    -3
390
F
  0
LAYER
  5
7A
330
2
100
AcDbSymbolTableRecord
100
AcDbLayerTableRecord
  2
VURGU
 70
     0
 62
     7
  6
Continuous
370
    -3
390
F
  0
LAYER
  5
7B
330
2
100
AcDbSymbolTableRecord
100
AcDbLayerTableRecord
  2
SILIK
 70
     0
 62
     7
  6
Continuous
370
    -3
390
F
  0
LAYER
  5
7C
330
2
100
AcDbSymbolTableRecord
100
AcDbLayerTableRecord
  2
MODEL
 70
     0
 62
     7
  6
Continuous
370
    -3
390
F
  0
LAYER
  5
7D
330
2
100
AcDbSymbolTableRecord
100
AcDbLayerTableRecord
  2
DETAYLANDıRMA
 70
     0
 62
   190
  6
Continuous
370
    -3
390
F
  0
LAYER
  5
7E
330
2
100
AcDbSymbolTableRecord
100
AcDbLayerTableRecord
  2
TOLERANS
 70
     0
 62
   230
  6
Continuous
370
    -3
390
F
  0
LAYER
  5
7F
330
2
100
AcDbSymbolTableRecord
100
AcDbLayerTableRecord
  2
MERKEZ_CIZGILERI
 70
     0
 62
    30
  6
Continuous
370
    -3
390
F
  0
LAYER
  5
80
330
2
100
AcDbSymbolTableRecord
100
AcDbLayerTableRecord
  2
KESIT-DETAY_CIZGILERI
 70
     0
 62
     7
  6
Continuous
370
    -3
390
F
  0
LAYER
  5
81
330
2
100
AcDbSymbolTableRecord
100
AcDbLayerTableRecord
  2
\U+041E\U+0421\U+0415\U+0412\U+042B\U+0415
 70
     0
 62
     7
  6
Continuous
370
    -3
390
F
  0
LAYER
  5
82
330
2
100
AcDbSymbolTableRecord
100
AcDbLayerTableRecord
  2
\U+0412\U+041E\U+0414\U+042F\U+041D\U+042B\U+0415_\U+0417\U+041D\U+0410\U+041A\U+0418
 70
     0
 62
    11
  6
Continuous
370
    -3
390
F
  0
ENDTAB
  0
TABLE
  2
STYLE
  5
3
330
0
100
AcDbSymbolTable
 70
     1
  0
STYLE
  5
11
330
3
100
AcDbSymbolTableRecord
100
AcDbTextStyleTableRecord
  2
Standard
 70
     0
 40
0.0
 41
1.0
 50
0.0
 71
     0
 42
3.5
  3
txt
  4

  0
ENDTAB
  0
TABLE
  2
VIEW
  5
6
330
0
100
AcDbSymbolTable
 70
     0
  0
ENDTAB
  0
TABLE
  2
UCS
  5
7
330
0
100
AcDbSymbolTable
 70
     0
  0
ENDTAB
  0
TABLE
  2
APPID
  5
9
330
0
100
AcDbSymbolTable
 70
     1
  0
APPID
  5
12
330
9
100
AcDbSymbolTableRecord
100
AcDbRegAppTableRecord
  2
ACAD
 70
     0
  0
ENDTAB
  0
TABLE
  2
DIMSTYLE
  5
A
330
0
100
AcDbSymbolTable
 70
     1
100
AcDbDimStyleTable
  0
DIMSTYLE
105
27
330
A
100
AcDbSymbolTableRecord
100
AcDbDimStyleTableRecord
  2
ISO-25
 70
     0
 41
2.5
 42
0.625
 43
3.75
 44
1.25
 73
     0
 74
     0
 77
     1
 78
     8
140
2.5
141
2.5
143
0.0393700787
147
0.625
171
     3
172
     1
178
     0
271
     2
272
     2
274
     3
278
    44
283
     0
284
     8
340
11
  0
ENDTAB
  0
TABLE
  2
BLOCK_RECORD
  5
1
330
0
100
AcDbSymbolTable
 70
    18
  0
BLOCK_RECORD
  5
1F
330
1
100
AcDbSymbolTableRecord
100
AcDbBlockTableRecord
  2
*Model_Space
340
22
  0
BLOCK_RECORD
  5
1B
330
1
100
AcDbSymbolTableRecord
100
AcDbBlockTableRecord
  2
*Paper_Space
340
1E
  0
BLOCK_RECORD
  5
23
330
1
100
AcDbSymbolTableRecord
100
AcDbBlockTableRecord
  2
*Paper_Space0
340
26
  0
BLOCK_RECORD
  5
A7
330
1
100
AcDbSymbolTableRecord
100
AcDbBlockTableRecord
  2
SW_CENTERMARKSYMBOL_0
340
0
102
{BLKREFS
331
B2
102
}
  0
BLOCK_RECORD
  5
B3
330
1
100
AcDbSymbolTableRecord
100
AcDbBlockTableRecord
  2
SW_CENTERMARKSYMBOL_1
340
0
102
{BLKREFS
331
BE
102
}
  0
BLOCK_RECORD
  5
BF
330
1
100
AcDbSymbolTableRecord
100
AcDbBlockTableRecord
  2
SW_CENTERMARKSYMBOL_2
340
0
102
{BLKREFS
331
CA
102
}
  0
BLOCK_RECORD
  5
CB
330
1
100
AcDbSymbolTableRecord
100
AcDbBlockTableRecord
  2
SW_CENTERMARKSYMBOL_3
340
0
102
{BLKREFS
331
D6
102
}
  0
BLOCK_RECORD
  5
D7
330
1
100
AcDbSymbolTableRecord
100
AcDbBlockTableRecord
  2
SW_CENTERMARKSYMBOL_4
340
0
102
{BLKREFS
331
E2
102
}
  0
BLOCK_RECORD
  5
E3
330
1
100
AcDbSymbolTableRecord
100
AcDbBlockTableRecord
  2
SW_CENTERMARKSYMBOL_5
340
0
102
{BLKREFS
331
EE
102
}
  0
BLOCK_RECORD
  5
EF
330
1
100
AcDbSymbolTableRecord
100
AcDbBlockTableRecord
  2
SW_CENTERMARKSYMBOL_6
340
0
102
{BLKREFS
331
FA
102
}
  0
BLOCK_RECORD
  5
FB
330
1
100
AcDbSymbolTableRecord
100
AcDbBlockTableRecord
  2
SW_CENTERMARKSYMBOL_7
340
0
102
{BLKREFS
331
106
102
}
  0
BLOCK_RECORD
  5
107
330
1
100
AcDbSymbolTableRecord
100
AcDbBlockTableRecord
  2
SW_CENTERMARKSYMBOL_8
340
0
102
{BLKREFS
331
112
102
}
  0
BLOCK_RECORD
  5
113
330
1
100
AcDbSymbolTableRecord
100
AcDbBlockTableRecord
  2
SW_CENTERMARKSYMBOL_9
340
0
102
{BLKREFS
331
11E
102
}
  0
BLOCK_RECORD
  5
11F
330
1
100
AcDbSymbolTableRecord
100
AcDbBlockTableRecord
  2
SW_CENTERMARKSYMBOL_10
340
0
102
{BLKREFS
331
12A
102
}
  0
BLOCK_RECORD
  5
12B
330
1
100
AcDbSymbolTableRecord
100
AcDbBlockTableRecord
  2
SW_CENTERMARKSYMBOL_11
340
0
102
{BLKREFS
331
136
102
}
  0
BLOCK_RECORD
  5
137
330
1
100
AcDbSymbolTableRecord
100
AcDbBlockTableRecord
  2
SW_CENTERMARKSYMBOL_12
340
0
102
{BLKREFS
331
142
102
}
  0
BLOCK_RECORD
  5
143
330
1
100
AcDbSymbolTableRecord
100
AcDbBlockTableRecord
  2
SW_CENTERMARKSYMBOL_13
340
0
102
{BLKREFS
331
14E
102
}
  0
BLOCK_RECORD
  5
14F
330
1
100
AcDbSymbolTableRecord
100
AcDbBlockTableRecord
  2
SW_CENTERMARKSYMBOL_14
340
0
102
{BLKREFS
331
15A
102
}
  0
BLOCK_RECORD
  5
15B
330
1
100
AcDbSymbolTableRecord
100
AcDbBlockTableRecord
  2
SW_CENTERMARKSYMBOL_15
340
0
102
{BLKREFS
331
166
102
}
  0
BLOCK_RECORD
  5
167
330
1
100
AcDbSymbolTableRecord
100
AcDbBlockTableRecord
  2
SW_CENTERMARKSYMBOL_16
340
0
102
{BLKREFS
331
172
102
}
  0
ENDTAB
  0
ENDSEC
  0
SECTION
  2
BLOCKS
  0
BLOCK
  5
20
330
1F
100
AcDbEntity
  8
0
100
AcDbBlockBegin
  2
*Model_Space
 70
     0
 10
0.0
 20
0.0
 30
0.0
  3
*Model_Space
  1

  0
ENDBLK
  5
21
330
1F
100
AcDbEntity
  8
0
100
AcDbBlockEnd
  0
BLOCK
  5
1C
330
1B
100
AcDbEntity
 67
     1
  8
0
100
AcDbBlockBegin
  2
*Paper_Space
 70
     0
 10
0.0
 20
0.0
 30
0.0
  3
*Paper_Space
  1

  0
ENDBLK
  5
1D
330
1B
100
AcDbEntity
 67
     1
  8
0
100
AcDbBlockEnd
  0
BLOCK
  5
24
330
23
100
AcDbEntity
  8
0
100
AcDbBlockBegin
  2
*Paper_Space0
 70
     0
 10
0.0
 20
0.0
 30
0.0
  3
*Paper_Space0
  1

  0
ENDBLK
  5
25
330
23
100
AcDbEntity
  8
0
100
AcDbBlockEnd
  0
BLOCK
  5
A8
330
A7
100
AcDbEntity
  8
0
100
AcDbBlockBegin
  2
SW_CENTERMARKSYMBOL_0
 70
     0
 10
0.0
 20
0.0
 30
0.0
  3
SW_CENTERMARKSYMBOL_0
  1

  0
LINE
  5
AA
330
A7
100
AcDbEntity
  8
FORMAT
 62
     0
100
AcDbLine
 10
0.0
 20
0.0
 30
0.0
 11
0.0
 21
2.5
 31
0.0
  0
LINE
  5
AB
330
A7
100
AcDbEntity
  8
FORMAT
 62
     0
100
AcDbLine
 10
0.0
 20
0.0
 30
0.0
 11
-2.5
 21
0.0
 31
0.0
  0
LINE
  5
AC
330
A7
100
AcDbEntity
  8
FORMAT
 62
     0
100
AcDbLine
 10
0.0
 20
0.0
 30
0.0
 11
0.0
 21
-2.5
 31
0.0
  0
LINE
  5
AD
330
A7
100
AcDbEntity
  8
FORMAT
 62
     0
100
AcDbLine
 10
0.0
 20
0.0
 30
0.0
 11
2.5
 21
0.0
 31
0.0
  0
LINE
  5
AE
330
A7
100
AcDbEntity
  8
FORMAT
 62
     0
100
AcDbLine
 10
0.0
 20
5.0
 30
0.0
 11
0.0
 21
268.5
 31
0.0
  0
LINE
  5
AF
330
A7
100
AcDbEntity
  8
FORMAT
 62
     0
100
AcDbLine
 10
-5.0
 20
0.0
 30
0.0
 11
-268.5
 21
0.0
 31
0.0
  0
LINE
  5
B0
330
A7
100
AcDbEntity
  8
FORMAT
 62
     0
100
AcDbLine
 10
0.0
 20
-5.0
 30
0.0
 11
0.0
 21
-268.5
 31
0.0
  0
LINE
  5
B1
330
A7
100
AcDbEntity
  8
FORMAT
 62
     0
100
AcDbLine
 10
5.0
 20
0.0
 30
0.0
 11
268.5
 21
0.0
 31
0.0
  0
ENDBLK
  5
A9
330
A7
100
AcDbEntity
  8
0
100
AcDbBlockEnd
  0
BLOCK
  5
B4
330
B3
100
AcDbEntity
  8
0
100
AcDbBlockBegin
  2
SW_CENTERMARKSYMBOL_1
 70
     0
 10
0.0
 20
0.0
 30
0.0
  3
SW_CENTERMARKSYMBOL_1
  1

  0
LINE
  5
B6
330
B3
100
AcDbEntity
  8
FORMAT
 62
     0
100
AcDbLine
 10
0.0
 20
0.0
 30
0.0
 11
0.0
 21
2.5
 31
0.0
  0
LINE
  5
B7
330
B3
100
AcDbEntity
  8
FORMAT
 62
     0
100
AcDbLine
 10
0.0
 20
0.0
 30
0.0
 11
-2.5
 21
0.0
 31
0.0
  0
LINE
  5
B8
330
B3
100
AcDbEntity
  8
FORMAT
 62
     0
100
AcDbLine
 10
0.0
 20
0.0
 30
0.0
 11
0.0
 21
-2.5
 31
0.0
  0
LINE
  5
B9
330
B3
100
AcDbEntity
  8
FORMAT
 62
     0
100
AcDbLine
 10
0.0
 20
0.0
 30
0.0
 11
2.5
 21
0.0
 31
0.0
  0
LINE
  5
BA
330
B3
100
AcDbEntity
  8
FORMAT
 62
     0
100
AcDbLine
 10
0.0
 20
5.0
 30
0.0
 11
0.0
 21
15.5
 31
0.0
  0
LINE
  5
BB
330
B3
100
AcDbEntity
  8
FORMAT
 62
     0
100
AcDbLine
 10
-5.0
 20
0.0
 30
0.0
 11
-15.5
 21
0.0
 31
0.0
  0
LINE
  5
BC
330
B3
100
AcDbEntity
  8
FORMAT
 62
     0
100
AcDbLine
 10
0.0
 20
-5.0
 30
0.0
 11
0.0
 21
-15.5
 31
0.0
  0
LINE
  5
BD
330
B3
100
AcDbEntity
  8
FORMAT
 62
     0
100
AcDbLine
 10
5.0
 20
0.0
 30
0.0
 11
15.5
 21
0.0
 31
0.0
  0
ENDBLK
  5
B5
330
B3
100
AcDbEntity
  8
0
100
AcDbBlockEnd
  0
BLOCK
  5
C0
330
BF
100
AcDbEntity
  8
0
100
AcDbBlockBegin
  2
SW_CENTERMARKSYMBOL_2
 70
     0
 10
0.0
 20
0.0
 30
0.0
  3
SW_CENTERMARKSYMBOL_2
  1

  0
LINE
  5
C2
330
BF
100
AcDbEntity
  8
FORMAT
 62
     0
100
AcDbLine
 10
0.0
 20
0.0
 30
0.0
 11
0.0
 21
2.5
 31
0.0
  0
LINE
  5
C3
330
BF
100
AcDbEntity
  8
FORMAT
 62
     0
100
AcDbLine
 10
0.0
 20
0.0
 30
0.0
 11
-2.5
 21
0.0
 31
0.0
  0
LINE
  5
C4
330
BF
100
AcDbEntity
  8
FORMAT
 62
     0
100
AcDbLine
 10
0.0
 20
0.0
 30
0.0
 11
0.0
 21
-2.5
 31
0.0
  0
LINE
  5
C5
330
BF
100
AcDbEntity
  8
FORMAT
 62
     0
100
AcDbLine
 10
0.0
 20
0.0
 30
0.0
 11
2.5
 21
0.0
 31
0.0
  0
LINE
  5
C6
330
BF
100
AcDbEntity
  8
FORMAT
 62
     0
100
AcDbLine
 10
0.0
 20
5.0
 30
0.0
 11
0.0
 21
15.5
 31
0.0
  0
LINE
  5
C7
330
BF
100
AcDbEntity
  8
FORMAT
 62
     0
100
AcDbLine
 10
-5.0
 20
0.0
 30
0.0
 11
-15.5
 21
0.0
 31
0.0
  0
LINE
  5
C8
330
BF
100
AcDbEntity
  8
FORMAT
 62
     0
100
AcDbLine
 10
0.0
 20
-5.0
 30
0.0
 11
0.0
 21
-15.5
 31
0.0
  0
LINE
  5
C9
330
BF
100
AcDbEntity
  8
FORMAT
 62
     0
100
AcDbLine
 10
5.0
 20
0.0
 30
0.0
 11
15.5
 21
0.0
 31
0.0
  0
ENDBLK
  5
C1
330
BF
100
AcDbEntity
  8
0
100
AcDbBlockEnd
  0
BLOCK
  5
CC
330
CB
100
AcDbEntity
  8
0
100
AcDbBlockBegin
  2
SW_CENTERMARKSYMBOL_3
 70
     0
 10
0.0
 20
0.0
 30
0.0
  3
SW_CENTERMARKSYMBOL_3
  1

  0
LINE
  5
CE
330
CB
100
AcDbEntity
  8
FORMAT
 62
     0
100
AcDbLine
 10
0.0
 20
0.0
 30
0.0
 11
0.0
 21
2.5
 31
0.0
  0
LINE
  5
CF
330
CB
100
AcDbEntity
  8
FORMAT
 62
     0
100
AcDbLine
 10
0.0
 20
0.0
 30
0.0
 11
-2.5
 21
0.0
 31
0.0
  0
LINE
  5
D0
330
CB
100
AcDbEntity
  8
FORMAT
 62
     0
100
AcDbLine
 10
0.0
 20
0.0
 30
0.0
 11
0.0
 21
-2.5
 31
0.0
  0
LINE
  5
D1
330
CB
100
AcDbEntity
  8
FORMAT
 62
     0
100
AcDbLine
 10
0.0
 20
0.0
 30
0.0
 11
2.5
 21
0.0
 31
0.0
  0
LINE
  5
D2
330
CB
100
AcDbEntity
  8
FORMAT
 62
     0
100
AcDbLine
 10
0.0
 20
5.0
 30
0.0
 11
0.0
 21
15.5
 31
0.0
  0
LINE
  5
D3
330
CB
100
AcDbEntity
  8
FORMAT
 62
     0
100
AcDbLine
 10
-5.0
 20
0.0
 30
0.0
 11
-15.5
 21
0.0
 31
0.0
  0
LINE
  5
D4
330
CB
100
AcDbEntity
  8
FORMAT
 62
     0
100
AcDbLine
 10
0.0
 20
-5.0
 30
0.0
 11
0.0
 21
-15.5
 31
0.0
  0
LINE
  5
D5
330
CB
100
AcDbEntity
  8
FORMAT
 62
     0
100
AcDbLine
 10
5.0
 20
0.0
 30
0.0
 11
15.5
 21
0.0
 31
0.0
  0
ENDBLK
  5
CD
330
CB
100
AcDbEntity
  8
0
100
AcDbBlockEnd
  0
BLOCK
  5
D8
330
D7
100
AcDbEntity
  8
0
100
AcDbBlockBegin
  2
SW_CENTERMARKSYMBOL_4
 70
     0
 10
0.0
 20
0.0
 30
0.0
  3
SW_CENTERMARKSYMBOL_4
  1

  0
LINE
  5
DA
330
D7
100
AcDbEntity
  8
FORMAT
 62
     0
100
AcDbLine
 10
0.0
 20
0.0
 30
0.0
 11
0.0
 21
2.5
 31
0.0
  0
LINE
  5
DB
330
D7
100
AcDbEntity
  8
FORMAT
 62
     0
100
AcDbLine
 10
0.0
 20
0.0
 30
0.0
 11
-2.5
 21
0.0
 31
0.0
  0
LINE
  5
DC
330
D7
100
AcDbEntity
  8
FORMAT
 62
     0
100
AcDbLine
 10
0.0
 20
0.0
 30
0.0
 11
0.0
 21
-2.5
 31
0.0
  0
LINE
  5
DD
330
D7
100
AcDbEntity
  8
FORMAT
 62
     0
100
AcDbLine
 10
0.0
 20
0.0
 30
0.0
 11
2.5
 21
0.0
 31
0.0
  0
LINE
  5
DE
330
D7
100
AcDbEntity
  8
FORMAT
 62
     0
100
AcDbLine
 10
0.0
 20
5.0
 30
0.0
 11
0.0
 21
15.5
 31
0.0
  0
LINE
  5
DF
330
D7
100
AcDbEntity
  8
FORMAT
 62
     0
100
AcDbLine
 10
-5.0
 20
0.0
 30
0.0
 11
-15.5
 21
0.0
 31
0.0
  0
LINE
  5
E0
330
D7
100
AcDbEntity
  8
FORMAT
 62
     0
100
AcDbLine
 10
0.0
 20
-5.0
 30
0.0
 11
0.0
 21
-15.5
 31
0.0
  0
LINE
  5
E1
330
D7
100
AcDbEntity
  8
FORMAT
 62
     0
100
AcDbLine
 10
5.0
 20
0.0
 30
0.0
 11
15.5
 21
0.0
 31
0.0
  0
ENDBLK
  5
D9
330
D7
100
AcDbEntity
  8
0
100
AcDbBlockEnd
  0
BLOCK
  5
E4
330
E3
100
AcDbEntity
  8
0
100
AcDbBlockBegin
  2
SW_CENTERMARKSYMBOL_5
 70
     0
 10
0.0
 20
0.0
 30
0.0
  3
SW_CENTERMARKSYMBOL_5
  1

  0
LINE
  5
E6
330
E3
100
AcDbEntity
  8
FORMAT
 62
     0
100
AcDbLine
 10
0.0
 20
0.0
 30
0.0
 11
0.0
 21
2.5
 31
0.0
  0
LINE
  5
E7
330
E3
100
AcDbEntity
  8
FORMAT
 62
     0
100
AcDbLine
 10
0.0
 20
0.0
 30
0.0
 11
-2.5
 21
0.0
 31
0.0
  0
LINE
  5
E8
330
E3
100
AcDbEntity
  8
FORMAT
 62
     0
100
AcDbLine
 10
0.0
 20
0.0
 30
0.0
 11
0.0
 21
-2.5
 31
0.0
  0
LINE
  5
E9
330
E3
100
AcDbEntity
  8
FORMAT
 62
     0
100
AcDbLine
 10
0.0
 20
0.0
 30
0.0
 11
2.5
 21
0.0
 31
0.0
  0
LINE
  5
EA
330
E3
100
AcDbEntity
  8
FORMAT
 62
     0
100
AcDbLine
 10
0.0
 20
5.0
 30
0.0
 11
0.0
 21
16.5
 31
0.0
  0
LINE
  5
EB
330
E3
100
AcDbEntity
  8
FORMAT
 62
     0
100
AcDbLine
 10
-5.0
 20
0.0
 30
0.0
 11
-16.5
 21
0.0
 31
0.0
  0
LINE
  5
EC
330
E3
100
AcDbEntity
  8
FORMAT
 62
     0
100
AcDbLine
 10
0.0
 20
-5.0
 30
0.0
 11
0.0
 21
-16.5
 31
0.0
  0
LINE
  5
ED
330
E3
100
AcDbEntity
  8
FORMAT
 62
     0
100
AcDbLine
 10
5.0
 20
0.0
 30
0.0
 11
16.5
 21
0.0
 31
0.0
  0
ENDBLK
  5
E5
330
E3
100
AcDbEntity
  8
0
100
AcDbBlockEnd
  0
BLOCK
  5
F0
330
EF
100
AcDbEntity
  8
0
100
AcDbBlockBegin
  2
SW_CENTERMARKSYMBOL_6
 70
     0
 10
0.0
 20
0.0
 30
0.0
  3
SW_CENTERMARKSYMBOL_6
  1

  0
LINE
  5
F2
330
EF
100
AcDbEntity
  8
FORMAT
 62
     0
100
AcDbLine
 10
0.0
 20
0.0
 30
0.0
 11
0.0
 21
2.5
 31
0.0
  0
LINE
  5
F3
330
EF
100
AcDbEntity
  8
FORMAT
 62
     0
100
AcDbLine
 10
0.0
 20
0.0
 30
0.0
 11
-2.5
 21
0.0
 31
0.0
  0
LINE
  5
F4
330
EF
100
AcDbEntity
  8
FORMAT
 62
     0
100
AcDbLine
 10
0.0
 20
0.0
 30
0.0
 11
0.0
 21
-2.5
 31
0.0
  0
LINE
  5
F5
330
EF
100
AcDbEntity
  8
FORMAT
 62
     0
100
AcDbLine
 10
0.0
 20
0.0
 30
0.0
 11
2.5
 21
0.0
 31
0.0
  0
LINE
  5
F6
330
EF
100
AcDbEntity
  8
FORMAT
 62
     0
100
AcDbLine
 10
0.0
 20
5.0
 30
0.0
 11
0.0
 21
16.5
 31
0.0
  0
LINE
  5
F7
330
EF
100
AcDbEntity
  8
FORMAT
 62
     0
100
AcDbLine
 10
-5.0
 20
0.0
 30
0.0
 11
-16.5
 21
0.0
 31
0.0
  0
LINE
  5
F8
330
EF
100
AcDbEntity
  8
FORMAT
 62
     0
100
AcDbLine
 10
0.0
 20
-5.0
 30
0.0
 11
0.0
 21
-16.5
 31
0.0
  0
LINE
  5
F9
330
EF
100
AcDbEntity
  8
FORMAT
 62
     0
100
AcDbLine
 10
5.0
 20
0.0
 30
0.0
 11
16.5
 21
0.0
 31
0.0
  0
ENDBLK
  5
F1
330
EF
100
AcDbEntity
  8
0
100
AcDbBlockEnd
  0
BLOCK
  5
FC
330
FB
100
AcDbEntity
  8
0
100
AcDbBlockBegin
  2
SW_CENTERMARKSYMBOL_7
 70
     0
 10
0.0
 20
0.0
 30
0.0
  3
SW_CENTERMARKSYMBOL_7
  1

  0
LINE
  5
FE
330
FB
100
AcDbEntity
  8
FORMAT
 62
     0
100
AcDbLine
 10
0.0
 20
0.0
 30
0.0
 11
0.0
 21
2.5
 31
0.0
  0
LINE
  5
FF
330
FB
100
AcDbEntity
  8
FORMAT
 62
     0
100
AcDbLine
 10
0.0
 20
0.0
 30
0.0
 11
-2.5
 21
0.0
 31
0.0
  0
LINE
  5
100
330
FB
100
AcDbEntity
  8
FORMAT
 62
     0
100
AcDbLine
 10
0.0
 20
0.0
 30
0.0
 11
0.0
 21
-2.5
 31
0.0
  0
LINE
  5
101
330
FB
100
AcDbEntity
  8
FORMAT
 62
     0
100
AcDbLine
 10
0.0
 20
0.0
 30
0.0
 11
2.5
 21
0.0
 31
0.0
  0
LINE
  5
102
330
FB
100
AcDbEntity
  8
FORMAT
 62
     0
100
AcDbLine
 10
0.0
 20
5.0
 30
0.0
 11
0.0
 21
16.5
 31
0.0
  0
LINE
  5
103
330
FB
100
AcDbEntity
  8
FORMAT
 62
     0
100
AcDbLine
 10
-5.0
 20
0.0
 30
0.0
 11
-16.5
 21
0.0
 31
0.0
  0
LINE
  5
104
330
FB
100
AcDbEntity
  8
FORMAT
 62
     0
100
AcDbLine
 10
0.0
 20
-5.0
 30
0.0
 11
0.0
 21
-16.5
 31
0.0
  0
LINE
  5
105
330
FB
100
AcDbEntity
  8
FORMAT
 62
     0
100
AcDbLine
 10
5.0
 20
0.0
 30
0.0
 11
16.5
 21
0.0
 31
0.0
  0
ENDBLK
  5
FD
330
FB
100
AcDbEntity
  8
0
100
AcDbBlockEnd
  0
BLOCK
  5
108
330
107
100
AcDbEntity
  8
0
100
AcDbBlockBegin
  2
SW_CENTERMARKSYMBOL_8
 70
     0
 10
0.0
 20
0.0
 30
0.0
  3
SW_CENTERMARKSYMBOL_8
  1

  0
LINE
  5
10A
330
107
100
AcDbEntity
  8
FORMAT
 62
     0
100
AcDbLine
 10
0.0
 20
0.0
 30
0.0
 11
0.0
 21
2.5
 31
0.0
  0
LINE
  5
10B
330
107
100
AcDbEntity
  8
FORMAT
 62
     0
100
AcDbLine
 10
0.0
 20
0.0
 30
0.0
 11
-2.5
 21
0.0
 31
0.0
  0
LINE
  5
10C
330
107
100
AcDbEntity
  8
FORMAT
 62
     0
100
AcDbLine
 10
0.0
 20
0.0
 30
0.0
 11
0.0
 21
-2.5
 31
0.0
  0
LINE
  5
10D
330
107
100
AcDbEntity
  8
FORMAT
 62
     0
100
AcDbLine
 10
0.0
 20
0.0
 30
0.0
 11
2.5
 21
0.0
 31
0.0
  0
LINE
  5
10E
330
107
100
AcDbEntity
  8
FORMAT
 62
     0
100
AcDbLine
 10
0.0
 20
5.0
 30
0.0
 11
0.0
 21
16.5
 31
0.0
  0
LINE
  5
10F
330
107
100
AcDbEntity
  8
FORMAT
 62
     0
100
AcDbLine
 10
-5.0
 20
0.0
 30
0.0
 11
-16.5
 21
0.0
 31
0.0
  0
LINE
  5
110
330
107
100
AcDbEntity
  8
FORMAT
 62
     0
100
AcDbLine
 10
0.0
 20
-5.0
 30
0.0
 11
0.0
 21
-16.5
 31
0.0
  0
LINE
  5
111
330
107
100
AcDbEntity
  8
FORMAT
 62
     0
100
AcDbLine
 10
5.0
 20
0.0
 30
0.0
 11
16.5
 21
0.0
 31
0.0
  0
ENDBLK
  5
109
330
107
100
AcDbEntity
  8
0
100
AcDbBlockEnd
  0
BLOCK
  5
114
330
113
100
AcDbEntity
  8
0
100
AcDbBlockBegin
  2
SW_CENTERMARKSYMBOL_9
 70
     0
 10
0.0
 20
0.0
 30
0.0
  3
SW_CENTERMARKSYMBOL_9
  1

  0
LINE
  5
116
330
113
100
AcDbEntity
  8
FORMAT
 62
     0
100
AcDbLine
 10
0.0
 20
0.0
 30
0.0
 11
0.0
 21
2.5
 31
0.0
  0
LINE
  5
117
330
113
100
AcDbEntity
  8
FORMAT
 62
     0
100
AcDbLine
 10
0.0
 20
0.0
 30
0.0
 11
-2.5
 21
0.0
 31
0.0
  0
LINE
  5
118
330
113
100
AcDbEntity
  8
FORMAT
 62
     0
100
AcDbLine
 10
0.0
 20
0.0
 30
0.0
 11
0.0
 21
-2.5
 31
0.0
  0
LINE
  5
119
330
113
100
AcDbEntity
  8
FORMAT
 62
     0
100
AcDbLine
 10
0.0
 20
0.0
 30
0.0
 11
2.5
 21
0.0
 31
0.0
  0
LINE
  5
11A
330
113
100
AcDbEntity
  8
FORMAT
 62
     0
100
AcDbLine
 10
0.0
 20
5.0
 30
0.0
 11
0.0
 21
16.5
 31
0.0
  0
LINE
  5
11B
330
113
100
AcDbEntity
  8
FORMAT
 62
     0
100
AcDbLine
 10
-5.0
 20
0.0
 30
0.0
 11
-16.5
 21
0.0
 31
0.0
  0
LINE
  5
11C
330
113
100
AcDbEntity
  8
FORMAT
 62
     0
100
AcDbLine
 10
0.0
 20
-5.0
 30
0.0
 11
0.0
 21
-16.5
 31
0.0
  0
LINE
  5
11D
330
113
100
AcDbEntity
  8
FORMAT
 62
     0
100
AcDbLine
 10
5.0
 20
0.0
 30
0.0
 11
16.5
 21
0.0
 31
0.0
  0
ENDBLK
  5
115
330
113
100
AcDbEntity
  8
0
100
AcDbBlockEnd
  0
BLOCK
  5
120
330
11F
100
AcDbEntity
  8
0
100
AcDbBlockBegin
  2
SW_CENTERMARKSYMBOL_10
 70
     0
 10
0.0
 20
0.0
 30
0.0
  3
SW_CENTERMARKSYMBOL_10
  1

  0
LINE
  5
122
330
11F
100
AcDbEntity
  8
FORMAT
 62
     0
100
AcDbLine
 10
0.0
 20
0.0
 30
0.0
 11
0.0
 21
2.5
 31
0.0
  0
LINE
  5
123
330
11F
100
AcDbEntity
  8
FORMAT
 62
     0
100
AcDbLine
 10
0.0
 20
0.0
 30
0.0
 11
-2.5
 21
0.0
 31
0.0
  0
LINE
  5
124
330
11F
100
AcDbEntity
  8
FORMAT
 62
     0
100
AcDbLine
 10
0.0
 20
0.0
 30
0.0
 11
0.0
 21
-2.5
 31
0.0
  0
LINE
  5
125
330
11F
100
AcDbEntity
  8
FORMAT
 62
     0
100
AcDbLine
 10
0.0
 20
0.0
 30
0.0
 11
2.5
 21
0.0
 31
0.0
  0
LINE
  5
126
330
11F
100
AcDbEntity
  8
FORMAT
 62
     0
100
AcDbLine
 10
0.0
 20
5.0
 30
0.0
 11
0.0
 21
16.5
 31
0.0
  0
LINE
  5
127
330
11F
100
AcDbEntity
  8
FORMAT
 62
     0
100
AcDbLine
 10
-5.0
 20
0.0
 30
0.0
 11
-16.5
 21
0.0
 31
0.0
  0
LINE
  5
128
330
11F
100
AcDbEntity
  8
FORMAT
 62
     0
100
AcDbLine
 10
0.0
 20
-5.0
 30
0.0
 11
0.0
 21
-16.5
 31
0.0
  0
LINE
  5
129
330
11F
100
AcDbEntity
  8
FORMAT
 62
     0
100
AcDbLine
 10
5.0
 20
0.0
 30
0.0
 11
16.5
 21
0.0
 31
0.0
  0
ENDBLK
  5
121
330
11F
100
AcDbEntity
  8
0
100
AcDbBlockEnd
  0
BLOCK
  5
12C
330
12B
100
AcDbEntity
  8
0
100
AcDbBlockBegin
  2
SW_CENTERMARKSYMBOL_11
 70
     0
 10
0.0
 20
0.0
 30
0.0
  3
SW_CENTERMARKSYMBOL_11
  1

  0
LINE
  5
12E
330
12B
100
AcDbEntity
  8
FORMAT
 62
     0
100
AcDbLine
 10
0.0
 20
0.0
 30
0.0
 11
0.0
 21
2.5
 31
0.0
  0
LINE
  5
12F
330
12B
100
AcDbEntity
  8
FORMAT
 62
     0
100
AcDbLine
 10
0.0
 20
0.0
 30
0.0
 11
-2.5
 21
0.0
 31
0.0
  0
LINE
  5
130
330
12B
100
AcDbEntity
  8
FORMAT
 62
     0
100
AcDbLine
 10
0.0
 20
0.0
 30
0.0
 11
0.0
 21
-2.5
 31
0.0
  0
LINE
  5
131
330
12B
100
AcDbEntity
  8
FORMAT
 62
     0
100
AcDbLine
 10
0.0
 20
0.0
 30
0.0
 11
2.5
 21
0.0
 31
0.0
  0
LINE
  5
132
330
12B
100
AcDbEntity
  8
FORMAT
 62
     0
100
AcDbLine
 10
0.0
 20
5.0
 30
0.0
 11
0.0
 21
16.5
 31
0.0
  0
LINE
  5
133
330
12B
100
AcDbEntity
  8
FORMAT
 62
     0
100
AcDbLine
 10
-5.0
 20
0.0
 30
0.0
 11
-16.5
 21
0.0
 31
0.0
  0
LINE
  5
134
330
12B
100
AcDbEntity
  8
FORMAT
 62
     0
100
AcDbLine
 10
0.0
 20
-5.0
 30
0.0
 11
0.0
 21
-16.5
 31
0.0
  0
LINE
  5
135
330
12B
100
AcDbEntity
  8
FORMAT
 62
     0
100
AcDbLine
 10
5.0
 20
0.0
 30
0.0
 11
16.5
 21
0.0
 31
0.0
  0
ENDBLK
  5
12D
330
12B
100
AcDbEntity
  8
0
100
AcDbBlockEnd
  0
BLOCK
  5
138
330
137
100
AcDbEntity
  8
0
100
AcDbBlockBegin
  2
SW_CENTERMARKSYMBOL_12
 70
     0
 10
0.0
 20
0.0
 30
0.0
  3
SW_CENTERMARKSYMBOL_12
  1

  0
LINE
  5
13A
330
137
100
AcDbEntity
  8
FORMAT
 62
     0
100
AcDbLine
 10
0.0
 20
0.0
 30
0.0
 11
0.0
 21
2.5
 31
0.0
  0
LINE
  5
13B
330
137
100
AcDbEntity
  8
FORMAT
 62
     0
100
AcDbLine
 10
0.0
 20
0.0
 30
0.0
 11
-2.5
 21
0.0
 31
0.0
  0
LINE
  5
13C
330
137
100
AcDbEntity
  8
FORMAT
 62
     0
100
AcDbLine
 10
0.0
 20
0.0
 30
0.0
 11
0.0
 21
-2.5
 31
0.0
  0
LINE
  5
13D
330
137
100
AcDbEntity
  8
FORMAT
 62
     0
100
AcDbLine
 10
0.0
 20
0.0
 30
0.0
 11
2.5
 21
0.0
 31
0.0
  0
LINE
  5
13E
330
137
100
AcDbEntity
  8
FORMAT
 62
     0
100
AcDbLine
 10
0.0
 20
5.0
 30
0.0
 11
0.0
 21
16.5
 31
0.0
  0
LINE
  5
13F
330
137
100
AcDbEntity
  8
FORMAT
 62
     0
100
AcDbLine
 10
-5.0
 20
0.0
 30
0.0
 11
-16.5
 21
0.0
 31
0.0
  0
LINE
  5
140
330
137
100
AcDbEntity
  8
FORMAT
 62
     0
100
AcDbLine
 10
0.0
 20
-5.0
 30
0.0
 11
0.0
 21
-16.5
 31
0.0
  0
LINE
  5
141
330
137
100
AcDbEntity
  8
FORMAT
 62
     0
100
AcDbLine
 10
5.0
 20
0.0
 30
0.0
 11
16.5
 21
0.0
 31
0.0
  0
ENDBLK
  5
139
330
137
100
AcDbEntity
  8
0
100
AcDbBlockEnd
  0
BLOCK
  5
144
330
143
100
AcDbEntity
  8
0
100
AcDbBlockBegin
  2
SW_CENTERMARKSYMBOL_13
 70
     0
 10
0.0
 20
0.0
 30
0.0
  3
SW_CENTERMARKSYMBOL_13
  1

  0
LINE
  5
146
330
143
100
AcDbEntity
  8
FORMAT
 62
     0
100
AcDbLine
 10
0.0
 20
0.0
 30
0.0
 11
0.0
 21
2.5
 31
0.0
  0
LINE
  5
147
330
143
100
AcDbEntity
  8
FORMAT
 62
     0
100
AcDbLine
 10
0.0
 20
0.0
 30
0.0
 11
-2.5
 21
0.0
 31
0.0
  0
LINE
  5
148
330
143
100
AcDbEntity
  8
FORMAT
 62
     0
100
AcDbLine
 10
0.0
 20
0.0
 30
0.0
 11
0.0
 21
-2.5
 31
0.0
  0
LINE
  5
149
330
143
100
AcDbEntity
  8
FORMAT
 62
     0
100
AcDbLine
 10
0.0
 20
0.0
 30
0.0
 11
2.5
 21
0.0
 31
0.0
  0
LINE
  5
14A
330
143
100
AcDbEntity
  8
FORMAT
 62
     0
100
AcDbLine
 10
0.0
 20
5.0
 30
0.0
 11
0.0
 21
16.5
 31
0.0
  0
LINE
  5
14B
330
143
100
AcDbEntity
  8
FORMAT
 62
     0
100
AcDbLine
 10
-5.0
 20
0.0
 30
0.0
 11
-16.5
 21
0.0
 31
0.0
  0
LINE
  5
14C
330
143
100
AcDbEntity
  8
FORMAT
 62
     0
100
AcDbLine
 10
0.0
 20
-5.0
 30
0.0
 11
0.0
 21
-16.5
 31
0.0
  0
LINE
  5
14D
330
143
100
AcDbEntity
  8
FORMAT
 62
     0
100
AcDbLine
 10
5.0
 20
0.0
 30
0.0
 11
16.5
 21
0.0
 31
0.0
  0
ENDBLK
  5
145
330
143
100
AcDbEntity
  8
0
100
AcDbBlockEnd
  0
BLOCK
  5
150
330
14F
100
AcDbEntity
  8
0
100
AcDbBlockBegin
  2
SW_CENTERMARKSYMBOL_14
 70
     0
 10
0.0
 20
0.0
 30
0.0
  3
SW_CENTERMARKSYMBOL_14
  1

  0
LINE
  5
152
330
14F
100
AcDbEntity
  8
FORMAT
 62
     0
100
AcDbLine
 10
0.0
 20
0.0
 30
0.0
 11
0.0
 21
2.5
 31
0.0
  0
LINE
  5
153
330
14F
100
AcDbEntity
  8
FORMAT
 62
     0
100
AcDbLine
 10
0.0
 20
0.0
 30
0.0
 11
-2.5
 21
0.0
 31
0.0
  0
LINE
  5
154
330
14F
100
AcDbEntity
  8
FORMAT
 62
     0
100
AcDbLine
 10
0.0
 20
0.0
 30
0.0
 11
0.0
 21
-2.5
 31
0.0
  0
LINE
  5
155
330
14F
100
AcDbEntity
  8
FORMAT
 62
     0
100
AcDbLine
 10
0.0
 20
0.0
 30
0.0
 11
2.5
 21
0.0
 31
0.0
  0
LINE
  5
156
330
14F
100
AcDbEntity
  8
FORMAT
 62
     0
100
AcDbLine
 10
0.0
 20
5.0
 30
0.0
 11
0.0
 21
16.5
 31
0.0
  0
LINE
  5
157
330
14F
100
AcDbEntity
  8
FORMAT
 62
     0
100
AcDbLine
 10
-5.0
 20
0.0
 30
0.0
 11
-16.5
 21
0.0
 31
0.0
  0
LINE
  5
158
330
14F
100
AcDbEntity
  8
FORMAT
 62
     0
100
AcDbLine
 10
0.0
 20
-5.0
 30
0.0
 11
0.0
 21
-16.5
 31
0.0
  0
LINE
  5
159
330
14F
100
AcDbEntity
  8
FORMAT
 62
     0
100
AcDbLine
 10
5.0
 20
0.0
 30
0.0
 11
16.5
 21
0.0
 31
0.0
  0
ENDBLK
  5
151
330
14F
100
AcDbEntity
  8
0
100
AcDbBlockEnd
  0
BLOCK
  5
15C
330
15B
100
AcDbEntity
  8
0
100
AcDbBlockBegin
  2
SW_CENTERMARKSYMBOL_15
 70
     0
 10
0.0
 20
0.0
 30
0.0
  3
SW_CENTERMARKSYMBOL_15
  1

  0
LINE
  5
15E
330
15B
100
AcDbEntity
  8
FORMAT
 62
     0
100
AcDbLine
 10
0.0
 20
0.0
 30
0.0
 11
0.0
 21
2.5
 31
0.0
  0
LINE
  5
15F
330
15B
100
AcDbEntity
  8
FORMAT
 62
     0
100
AcDbLine
 10
0.0
 20
0.0
 30
0.0
 11
-2.5
 21
0.0
 31
0.0
  0
LINE
  5
160
330
15B
100
AcDbEntity
  8
FORMAT
 62
     0
100
AcDbLine
 10
0.0
 20
0.0
 30
0.0
 11
0.0
 21
-2.5
 31
0.0
  0
LINE
  5
161
330
15B
100
AcDbEntity
  8
FORMAT
 62
     0
100
AcDbLine
 10
0.0
 20
0.0
 30
0.0
 11
2.5
 21
0.0
 31
0.0
  0
LINE
  5
162
330
15B
100
AcDbEntity
  8
FORMAT
 62
     0
100
AcDbLine
 10
0.0
 20
5.0
 30
0.0
 11
0.0
 21
16.5
 31
0.0
  0
LINE
  5
163
330
15B
100
AcDbEntity
  8
FORMAT
 62
     0
100
AcDbLine
 10
-5.0
 20
0.0
 30
0.0
 11
-16.5
 21
0.0
 31
0.0
  0
LINE
  5
164
330
15B
100
AcDbEntity
  8
FORMAT
 62
     0
100
AcDbLine
 10
0.0
 20
-5.0
 30
0.0
 11
0.0
 21
-16.5
 31
0.0
  0
LINE
  5
165
330
15B
100
AcDbEntity
  8
FORMAT
 62
     0
100
AcDbLine
 10
5.0
 20
0.0
 30
0.0
 11
16.5
 21
0.0
 31
0.0
  0
ENDBLK
  5
15D
330
15B
100
AcDbEntity
  8
0
100
AcDbBlockEnd
  0
BLOCK
  5
168
330
167
100
AcDbEntity
  8
0
100
AcDbBlockBegin
  2
SW_CENTERMARKSYMBOL_16
 70
     0
 10
0.0
 20
0.0
 30
0.0
  3
SW_CENTERMARKSYMBOL_16
  1

  0
LINE
  5
16A
330
167
100
AcDbEntity
  8
FORMAT
 62
     0
100
AcDbLine
 10
0.0
 20
0.0
 30
0.0
 11
0.0
 21
2.5
 31
0.0
  0
LINE
  5
16B
330
167
100
AcDbEntity
  8
FORMAT
 62
     0
100
AcDbLine
 10
0.0
 20
0.0
 30
0.0
 11
-2.5
 21
0.0
 31
0.0
  0
LINE
  5
16C
330
167
100
AcDbEntity
  8
FORMAT
 62
     0
100
AcDbLine
 10
0.0
 20
0.0
 30
0.0
 11
0.0
 21
-2.5
 31
0.0
  0
LINE
  5
16D
330
167
100
AcDbEntity
  8
FORMAT
 62
     0
100
AcDbLine
 10
0.0
 20
0.0
 30
0.0
 11
2.5
 21
0.0
 31
0.0
  0
LINE
  5
16E
330
167
100
AcDbEntity
  8
FORMAT
 62
     0
100
AcDbLine
 10
0.0
 20
5.0
 30
0.0
 11
0.0
 21
16.5
 31
0.0
  0
LINE
  5
16F
330
167
100
AcDbEntity
  8
FORMAT
 62
     0
100
AcDbLine
 10
-5.0
 20
0.0
 30
0.0
 11
-16.5
 21
0.0
 31
0.0
  0
LINE
  5
170
330
167
100
AcDbEntity
  8
FORMAT
 62
     0
100
AcDbLine
 10
0.0
 20
-5.0
 30
0.0
 11
0.0
 21
-16.5
 31
0.0
  0
LINE
  5
171
330
167
100
AcDbEntity
  8
FORMAT
 62
     0
100
AcDbLine
 10
5.0
 20
0.0
 30
0.0
 11
16.5
 21
0.0
 31
0.0
  0
ENDBLK
  5
169
330
167
100
AcDbEntity
  8
0
100
AcDbBlockEnd
  0
ENDSEC
  0
SECTION
  2
ENTITIES
  0
CIRCLE
  5
83
330
1F
100
AcDbEntity
  8
0
  6
Continuous
 62
     7
370
    25
100
AcDbCircle
 10
-17.5275365403
 20
279.605762249
 30
0.0
 40
13.99999999999998
  0
CIRCLE
  5
84
330
1F
100
AcDbEntity
  8
0
  6
Continuous
 62
     7
370
    25
100
AcDbCircle
 10
-86.3574429615
 20
113.4356686702
 30
0.0
 40
14.00000000000001
  0
CIRCLE
  5
85
330
1F
100
AcDbEntity
  8
0
  6
Continuous
 62
     7
370
    25
100
AcDbCircle
 10
-17.5275365403
 20
-52.7344249087
 30
0.0
 40
14.00000000000001
  0
CIRCLE
  5
86
330
1F
100
AcDbEntity
  8
0
  6
Continuous
 62
     7
370
    25
100
AcDbCircle
 10
148.6425570385
 20
-121.5643313298
 30
0.0
 40
14.0
  0
CIRCLE
  5
87
330
1F
100
AcDbEntity
  8
0
  6
Continuous
 62
     7
370
    25
100
AcDbCircle
 10
314.8126506174
 20
-52.7344249087
 30
0.0
 40
14.0
  0
CIRCLE
  5
88
330
1F
100
AcDbEntity
  8
0
  6
Continuous
 62
     7
370
    25
100
AcDbCircle
 10
365.7542471787
 20
203.366275276
 30
0.0
 40
14.00000000000006
  0
CIRCLE
  5
89
330
1F
100
AcDbEntity
  8
0
  6
Continuous
 62
     7
370
    25
100
AcDbCircle
 10
238.5731636444
 20
330.5473588103
 30
0.0
 40
14.00000000000003
  0
CIRCLE
  5
8A
330
1F
100
AcDbEntity
  8
0
  6
Continuous
 62
     7
370
    25
100
AcDbCircle
 10
148.6425570386
 20
348.4356686702
 30
0.0
 40
14.0
  0
CIRCLE
  5
8B
330
1F
100
AcDbEntity
  8
0
  6
Continuous
 62
     7
370
    25
100
AcDbCircle
 10
148.6425570386
 20
113.4356686702
 30
0.0
 40
265.0000000000001
  0
CIRCLE
  5
8C
330
1F
100
AcDbEntity
  8
0
  6
Continuous
 62
     7
370
    25
100
AcDbCircle
 10
148.6425570386
 20
113.4356686702
 30
0.0
 40
189.0
  0
CIRCLE
  5
8D
330
1F
100
AcDbEntity
  8
0
  6
Continuous
 62
     7
370
    25
100
AcDbCircle
 10
383.6425570386
 20
113.4356686702
 30
0.0
 40
14.0
  0
CIRCLE
  5
8E
330
1F
100
AcDbEntity
  8
0
  6
Continuous
 62
     7
370
    25
100
AcDbCircle
 10
314.8126506174
 20
279.605762249
 30
0.0
 40
14.0
  0
CIRCLE
  5
8F
330
1F
100
AcDbEntity
  8
0
  6
Continuous
 62
     7
370
    25
100
AcDbCircle
 10
365.7542471787
 20
23.5050620644
 30
0.0
 40
14.00000000000006
  0
CIRCLE
  5
90
330
1F
100
AcDbEntity
  8
0
  6
Continuous
 62
     7
370
    25
100
AcDbCircle
 10
238.5731636443
 20
-103.67602147
 30
0.0
 40
13.99999999999997
  0
CIRCLE
  5
91
330
1F
100
AcDbEntity
  8
0
  6
Continuous
 62
     7
370
    25
100
AcDbCircle
 10
58.7119504327
 20
-103.67602147
 30
0.0
 40
14.0
  0
CIRCLE
  5
92
330
1F
100
AcDbEntity
  8
0
  6
Continuous
 62
     7
370
    25
100
AcDbCircle
 10
-68.4691331016
 20
23.5050620644
 30
0.0
 40
14.00000000000002
  0
CIRCLE
  5
93
330
1F
100
AcDbEntity
  8
0
  6
Continuous
 62
     7
370
    25
100
AcDbCircle
 10
-68.4691331016
 20
203.366275276
 30
0.0
 40
14.00000000000001
  0
CIRCLE
  5
94
330
1F
100
AcDbEntity
  8
0
  6
Continuous
 62
     7
370
    25
100
AcDbCircle
 10
58.7119504328
 20
330.5473588104
 30
0.0
 40
14.00000000000001
  0
CIRCLE
  5
95
330
1F
100
AcDbEntity
  8
0
  6
Continuous
 62
     7
370
    25
100
AcDbCircle
 10
365.7542471787
 20
23.5050620644
 30
0.0
 40
13.00000000000006
  0
CIRCLE
  5
96
330
1F
100
AcDbEntity
  8
0
  6
Continuous
 62
     7
370
    25
100
AcDbCircle
 10
314.8126506174
 20
279.605762249
 30
0.0
 40
13.0
  0
CIRCLE
  5
97
330
1F
100
AcDbEntity
  8
0
  6
Continuous
 62
     7
370
    25
100
AcDbCircle
 10
383.6425570386
 20
113.4356686702
 30
0.0
 40
13.0
  0
CIRCLE
  5
98
330
1F
100
AcDbEntity
  8
0
  6
Continuous
 62
     7
370
    25
100
AcDbCircle
 10
148.6425570386
 20
113.4356686702
 30
0.0
 40
188.0
  0
CIRCLE
  5
99
330
1F
100
AcDbEntity
  8
0
  6
Continuous
 62
     7
370
    25
100
AcDbCircle
 10
148.6425570386
 20
113.4356686702
 30
0.0
 40
266.0000000000001
  0
CIRCLE
  5
9A
330
1F
100
AcDbEntity
  8
0
  6
Continuous
 62
     7
370
    25
100
AcDbCircle
 10
148.6425570386
 20
348.4356686702
 30
0.0
 40
13.0
  0
CIRCLE
  5
9B
330
1F
100
AcDbEntity
  8
0
  6
Continuous
 62
     7
370
    25
100
AcDbCircle
 10
238.5731636444
 20
330.5473588103
 30
0.0
 40
13.00000000000003
  0
CIRCLE
  5
9C
330
1F
100
AcDbEntity
  8
0
  6
Continuous
 62
     7
370
    25
100
AcDbCircle
 10
365.7542471787
 20
203.366275276
 30
0.0
 40
13.00000000000006
  0
CIRCLE
  5
9D
330
1F
100
AcDbEntity
  8
0
  6
Continuous
 62
     7
370
    25
100
AcDbCircle
 10
314.8126506174
 20
-52.7344249087
 30
0.0
 40
13.0
  0
CIRCLE
  5
9E
330
1F
100
AcDbEntity
  8
0
  6
Continuous
 62
     7
370
    25
100
AcDbCircle
 10
58.7119504328
 20
330.5473588104
 30
0.0
 40
13.00000000000001
  0
CIRCLE
  5
9F
330
1F
100
AcDbEntity
  8
0
  6
Continuous
 62
     7
370
    25
100
AcDbCircle
 10
-68.4691331016
 20
203.366275276
 30
0.0
 40
13.00000000000001
  0
CIRCLE
  5
A0
330
1F
100
AcDbEntity
  8
0
  6
Continuous
 62
     7
370
    25
100
AcDbCircle
 10
-68.4691331016
 20
23.5050620644
 30
0.0
 40
13.00000000000002
  0
CIRCLE
  5
A1
330
1F
100
AcDbEntity
  8
0
  6
Continuous
 62
     7
370
    25
100
AcDbCircle
 10
58.7119504327
 20
-103.67602147
 30
0.0
 40
13.0
  0
CIRCLE
  5
A2
330
1F
100
AcDbEntity
  8
0
  6
Continuous
 62
     7
370
    25
100
AcDbCircle
 10
238.5731636443
 20
-103.67602147
 30
0.0
 40
12.99999999999997
  0
CIRCLE
  5
A3
330
1F
100
AcDbEntity
  8
0
  6
Continuous
 62
     7
370
    25
100
AcDbCircle
 10
-17.5275365403
 20
-52.7344249087
 30
0.0
 40
13.00000000000001
  0
CIRCLE
  5
A4
330
1F
100
AcDbEntity
  8
0
  6
Continuous
 62
     7
370
    25
100
AcDbCircle
 10
-86.3574429615
 20
113.4356686702
 30
0.0
 40
13.00000000000001
  0
CIRCLE
  5
A5
330
1F
100
AcDbEntity
  8
0
  6
Continuous
 62
     7
370
    25
100
AcDbCircle
 10
148.6425570385
 20
-121.5643313298
 30
0.0
 40
13.0
  0
CIRCLE
  5
A6
330
1F
100
AcDbEntity
  8
0
  6
Continuous
 62
     7
370
    25
100
AcDbCircle
 10
-17.5275365403
 20
279.605762249
 30
0.0
 40
12.99999999999998
  0
INSERT
  5
B2
330
1F
100
AcDbEntity
  8
FORMAT
 62
     7
100
AcDbBlockReference
  2
SW_CENTERMARKSYMBOL_0
 10
148.6425570386
 20
113.4356686702
 30
0.0
  0
INSERT
  5
BE
330
1F
100
AcDbEntity
  8
FORMAT
 62
     7
100
AcDbBlockReference
  2
SW_CENTERMARKSYMBOL_1
 10
148.6425570386
 20
348.4356686702
 30
0.0
  0
INSERT
  5
CA
330
1F
100
AcDbEntity
  8
FORMAT
 62
     7
100
AcDbBlockReference
  2
SW_CENTERMARKSYMBOL_2
 10
238.5731636444
 20
330.5473588103
 30
0.0
  0
INSERT
  5
D6
330
1F
100
AcDbEntity
  8
FORMAT
 62
     7
100
AcDbBlockReference
  2
SW_CENTERMARKSYMBOL_3
 10
314.8126506174
 20
279.605762249
 30
0.0
  0
INSERT
  5
E2
330
1F
100
AcDbEntity
  8
FORMAT
 62
     7
100
AcDbBlockReference
  2
SW_CENTERMARKSYMBOL_4
 10
365.7542471787
 20
203.366275276
 30
0.0
  0
INSERT
  5
EE
330
1F
100
AcDbEntity
  8
FORMAT
 62
     7
100
AcDbBlockReference
  2
SW_CENTERMARKSYMBOL_5
 10
238.5731636443
 20
-103.67602147
 30
0.0
  0
INSERT
  5
FA
330
1F
100
AcDbEntity
  8
FORMAT
 62
     7
100
AcDbBlockReference
  2
SW_CENTERMARKSYMBOL_6
 10
314.8126506174
 20
-52.7344249087
 30
0.0
  0
INSERT
  5
106
330
1F
100
AcDbEntity
  8
FORMAT
 62
     7
100
AcDbBlockReference
  2
SW_CENTERMARKSYMBOL_7
 10
365.7542471787
 20
23.5050620644
 30
0.0
  0
INSERT
  5
112
330
1F
100
AcDbEntity
  8
FORMAT
 62
     7
100
AcDbBlockReference
  2
SW_CENTERMARKSYMBOL_8
 10
-68.4691331016
 20
23.5050620644
 30
0.0
  0
INSERT
  5
11E
330
1F
100
AcDbEntity
  8
FORMAT
 62
     7
100
AcDbBlockReference
  2
SW_CENTERMARKSYMBOL_9
 10
-17.5275365403
 20
-52.7344249087
 30
0.0
  0
INSERT
  5
12A
330
1F
100
AcDbEntity
  8
FORMAT
 62
     7
100
AcDbBlockReference
  2
SW_CENTERMARKSYMBOL_10
 10
58.7119504327
 20
-103.67602147
 30
0.0
  0
INSERT
  5
136
330
1F
100
AcDbEntity
  8
FORMAT
 62
     7
100
AcDbBlockReference
  2
SW_CENTERMARKSYMBOL_11
 10
148.6425570385
 20
-121.5643313298
 30
0.0
  0
INSERT
  5
142
330
1F
100
AcDbEntity
  8
FORMAT
 62
     7
100
AcDbBlockReference
  2
SW_CENTERMARKSYMBOL_12
 10
383.6425570386
 20
113.4356686702
 30
0.0
  0
INSERT
  5
14E
330
1F
100
AcDbEntity
  8
FORMAT
 62
     7
100
AcDbBlockReference
  2
SW_CENTERMARKSYMBOL_13
 10
58.7119504328
 20
330.5473588104
 30
0.0
  0
INSERT
  5
15A
330
1F
100
AcDbEntity
  8
FORMAT
 62
     7
100
AcDbBlockReference
  2
SW_CENTERMARKSYMBOL_14
 10
-17.5275365403
 20
279.605762249
 30
0.0
  0
INSERT
  5
166
330
1F
100
AcDbEntity
  8
FORMAT
 62
     7
100
AcDbBlockReference
  2
SW_CENTERMARKSYMBOL_15
 10
-68.4691331016
 20
203.366275276
 30
0.0
  0
INSERT
  5
172
330
1F
100
AcDbEntity
  8
FORMAT
 62
     7
100
AcDbBlockReference
  2
SW_CENTERMARKSYMBOL_16
 10
-86.3574429615
 20
113.4356686702
 30
0.0
  0
ARC
  5
173
330
1F
100
AcDbEntity
  8
0
  6
Continuous
 62
     7
370
    25
100
AcDbCircle
 10
-378.7297853154
 20
-151.5643313298
 30
0.0
 40
1.0
100
AcDbArc
 50
270.0
 51
0.0
  0
ARC
  5
174
330
1F
100
AcDbEntity
  8
0
  6
Continuous
 62
     7
370
    25
100
AcDbCircle
 10
-378.7297853154
 20
378.4356686702
 30
0.0
 40
1.0
100
AcDbArc
 50
0.0
 51
90.0
  0
LINE
  5
175
330
1F
100
AcDbEntity
  8
0
  6
Continuous
 62
     7
370
    25
100
AcDbLine
 10
-378.7297853154
 20
379.4356686702
 30
0.0
 11
-418.7297853154
 21
379.4356686702
 31
0.0
  0
LINE
  5
176
330
1F
100
AcDbEntity
  8
0
  6
Continuous
 62
     7
370
    25
100
AcDbLine
 10
-418.7297853154
 20
-152.5643313298
 30
0.0
 11
-378.7297853154
 21
-152.5643313298
 31
0.0
  0
ARC
  5
177
330
1F
100
AcDbEntity
  8
0
  6
Continuous
 62
     7
370
    25
100
AcDbCircle
 10
-418.7297853154
 20
-151.5643313298
 30
0.0
 40
1.0
100
AcDbArc
 50
180.0
 51
270.0
  0
ARC
  5
178
330
1F
100
AcDbEntity
  8
0
  6
Continuous
 62
     7
370
    25
100
AcDbCircle
 10
-418.7297853154
 20
378.4356686702
 30
0.0
 40
1.0
100
AcDbArc
 50
90.0
 51
180.0
  0
LINE
  5
179
330
1F
100
AcDbEntity
  8
0
  6
Continuous
 62
     7
370
    25
100
AcDbLine
 10
-377.7297853154
 20
113.4356686702
 30
0.0
 11
-377.7297853154
 21
-151.5643313298
 31
0.0
  0
LINE
  5
17A
330
1F
100
AcDbEntity
  8
0
  6
Continuous
 62
     7
370
    25
100
AcDbLine
 10
-377.7297853154
 20
378.4356686702
 30
0.0
 11
-377.7297853154
 21
113.4356686702
 31
0.0
  0
LINE
  5
17B
330
1F
100
AcDbEntity
  8
0
  6
Continuous
 62
     7
370
    25
100
AcDbLine
 10
-419.7297853154
 20
113.4356686702
 30
0.0
 11
-419.7297853154
 21
378.4356686702
 31
0.0
  0
LINE
  5
17C
330
1F
100
AcDbEntity
  8
0
  6
Continuous
 62
     7
370
    25
100
AcDbLine
 10
-419.7297853154
 20
-151.5643313298
 30
0.0
 11
-419.7297853154
 21
113.4356686702
 31
0.0
  0
LINE
  5
17D
330
1F
100
AcDbEntity
  8
0
  6
Continuous
 62
     1
370
    25
100
AcDbLine
 10
-378.7297853154
 20
113.4356686702
 30
0.0
 11
-378.7297853154
 21
379.4356686702
 31
0.0
  0
LINE
  5
17E
330
1F
100
AcDbEntity
  8
0
  6
Continuous
 62
     1
370
    25
100
AcDbLine
 10
-378.7297853154
 20
-152.5643313298
 30
0.0
 11
-378.7297853154
 21
113.4356686702
 31
0.0
  0
LINE
  5
17F
330
1F
100
AcDbEntity
  8
0
  6
Continuous
 62
     1
370
    25
100
AcDbLine
 10
-418.7297853154
 20
113.4356686702
 30
0.0
 11
-418.7297853154
 21
-152.5643313298
 31
0.0
  0
LINE
  5
180
330
1F
100
AcDbEntity
  8
0
  6
Continuous
 62
     1
370
    25
100
AcDbLine
 10
-418.7297853154
 20
379.4356686702
 30
0.0
 11
-418.7297853154
 21
113.4356686702
 31
0.0
  0
ARC
  5
181
330
1F
100
AcDbEntity
  8
0
  6
Continuous
 62
     7
370
    25
100
AcDbCircle
 10
680.4255132261
 20
378.4356686702
 30
0.0
 40
1.0
100
AcDbArc
 50
90.0
 51
180.0
  0
ARC
  5
182
330
1F
100
AcDbEntity
  8
0
  6
Continuous
 62
     7
370
    25
100
AcDbCircle
 10
680.4255132261
 20
-151.5643313298
 30
0.0
 40
1.0
100
AcDbArc
 50
180.0
 51
270.0
  0
LINE
  5
183
330
1F
100
AcDbEntity
  8
0
  6
Continuous
 62
     7
370
    25
100
AcDbLine
 10
680.4255132261
 20
-152.5643313298
 30
0.0
 11
720.4255132261
 21
-152.5643313298
 31
0.0
  0
LINE
  5
184
330
1F
100
AcDbEntity
  8
0
  6
Continuous
 62
     7
370
    25
100
AcDbLine
 10
720.4255132261
 20
379.4356686702
 30
0.0
 11
680.4255132261
 21
379.4356686702
 31
0.0
  0
ARC
  5
185
330
1F
100
AcDbEntity
  8
0
  6
Continuous
 62
     7
370
    25
100
AcDbCircle
 10
720.4255132261
 20
378.4356686702
 30
0.0
 40
1.0
100
AcDbArc
 50
0.0
 51
90.0
  0
ARC
  5
186
330
1F
100
AcDbEntity
  8
0
  6
Continuous
 62
     7
370
    25
100
AcDbCircle
 10
720.4255132261
 20
-151.5643313298
 30
0.0
 40
1.0
100
AcDbArc
 50
270.0
 51
0.0
  0
LINE
  5
187
330
1F
100
AcDbEntity
  8
0
  6
Continuous
 62
     7
370
    25
100
AcDbLine
 10
679.4255132261
 20
-151.5643313298
 30
0.0
 11
679.4255132261
 21
378.4356686702
 31
0.0
  0
LINE
  5
188
330
1F
100
AcDbEntity
  8
0
  6
Continuous
 62
     7
370
    25
100
AcDbLine
 10
721.4255132261
 20
378.4356686702
 30
0.0
 11
721.4255132261
 21
-151.5643313298
 31
0.0
  0
LINE
  5
189
330
1F
100
AcDbEntity
  8
0
  6
Continuous
 62
     1
370
    25
100
AcDbLine
 10
680.4255132261
 20
379.4356686702
 30
0.0
 11
680.4255132261
 21
-152.5643313298
 31
0.0
  0
LINE
  5
18A
330
1F
100
AcDbEntity
  8
0
  6
Continuous
 62
     1
370
    25
100
AcDbLine
 10
720.4255132261
 20
-152.5643313298
 30
0.0
 11
720.4255132261
 21
379.4356686702
 31
0.0
  0
ARC
  5
18B
330
1F
100
AcDbEntity
  8
0
  6
Continuous
 62
     7
370
    25
100
AcDbCircle
 10
-116.3574429614
 20
559.1716462617
 30
0.0
 40
1.0
100
AcDbArc
 50
180.0
 51
270.0
  0
ARC
  5
18C
330
1F
100
AcDbEntity
  8
0
  6
Continuous
 62
     7
370
    25
100
AcDbCircle
 10
413.6425570386
 20
559.1716462617
 30
0.0
 40
1.0
100
AcDbArc
 50
270.0
 51
0.0
  0
LINE
  5
18D
330
1F
100
AcDbEntity
  8
0
  6
Continuous
 62
     7
370
    25
100
AcDbLine
 10
414.6425570386
 20
559.1716462617
 30
0.0
 11
414.6425570386
 21
599.1716462617
 31
0.0
  0
LINE
  5
18E
330
1F
100
AcDbEntity
  8
0
  6
Continuous
 62
     7
370
    25
100
AcDbLine
 10
-117.3574429614
 20
599.1716462617
 30
0.0
 11
-117.3574429614
 21
559.1716462617
 31
0.0
  0
ARC
  5
18F
330
1F
100
AcDbEntity
  8
0
  6
Continuous
 62
     7
370
    25
100
AcDbCircle
 10
-116.3574429614
 20
599.1716462617
 30
0.0
 40
1.0
100
AcDbArc
 50
90.0
 51
180.0
  0
ARC
  5
190
330
1F
100
AcDbEntity
  8
0
  6
Continuous
 62
     7
370
    25
100
AcDbCircle
 10
413.6425570386
 20
599.1716462617
 30
0.0
 40
1.0
100
AcDbArc
 50
0.0
 51
90.0
  0
LINE
  5
191
330
1F
100
AcDbEntity
  8
0
  6
Continuous
 62
     7
370
    25
100
AcDbLine
 10
413.6425570386
 20
558.1716462617
 30
0.0
 11
-116.3574429602
 21
558.1716462617
 31
0.0
  0
LINE
  5
192
330
1F
100
AcDbEntity
  8
0
  6
Continuous
 62
     7
370
    25
100
AcDbLine
 10
413.6425570386
 20
600.1716462617
 30
0.0
 11
-116.3574429614
 21
600.1716462617
 31
0.0
  0
LINE
  5
193
330
1F
100
AcDbEntity
  8
0
  6
Continuous
 62
     1
370
    25
100
AcDbLine
 10
-117.3574429614
 20
559.1716462617
 30
0.0
 11
414.6425570386
 21
559.1716462617
 31
0.0
  0
LINE
  5
194
330
1F
100
AcDbEntity
  8
0
  6
Continuous
 62
     1
370
    25
100
AcDbLine
 10
414.6425570386
 20
599.1716462617
 30
0.0
 11
-117.3574429614
 21
599.1716462617
 31
0.0
  0
ARC
  5
195
330
1F
100
AcDbEntity
  8
0
  6
Continuous
 62
     7
370
    25
100
AcDbCircle
 10
413.6425570386
 20
-423.4033585247
 30
0.0
 40
1.0
100
AcDbArc
 50
0.0
 51
90.0
  0
ARC
  5
196
330
1F
100
AcDbEntity
  8
0
  6
Continuous
 62
     7
370
    25
100
AcDbCircle
 10
-116.3574429614
 20
-423.4033585247
 30
0.0
 40
1.0
100
AcDbArc
 50
90.0
 51
180.0
  0
LINE
  5
197
330
1F
100
AcDbEntity
  8
0
  6
Continuous
 62
     7
370
    25
100
AcDbLine
 10
-117.3574429614
 20
-423.4033585247
 30
0.0
 11
-117.3574429614
 21
-463.4033585247
 31
0.0
  0
LINE
  5
198
330
1F
100
AcDbEntity
  8
0
  6
Continuous
 62
     7
370
    25
100
AcDbLine
 10
414.6425570386
 20
-463.4033585247
 30
0.0
 11
414.6425570386
 21
-423.4033585247
 31
0.0
  0
ARC
  5
199
330
1F
100
AcDbEntity
  8
0
  6
Continuous
 62
     7
370
    25
100
AcDbCircle
 10
413.6425570386
 20
-463.4033585247
 30
0.0
 40
1.0
100
AcDbArc
 50
270.0
 51
0.0
  0
ARC
  5
19A
330
1F
100
AcDbEntity
  8
0
  6
Continuous
 62
     7
370
    25
100
AcDbCircle
 10
-116.3574429614
 20
-463.4033585247
 30
0.0
 40
1.0
100
AcDbArc
 50
180.0
 51
270.0
  0
LINE
  5
19B
330
1F
100
AcDbEntity
  8
0
  6
Continuous
 62
     7
370
    25
100
AcDbLine
 10
413.6425570386
 20
-422.4033585247
 30
0.0
 11
-116.3574429614
 21
-422.4033585247
 31
0.0
  0
LINE
  5
19C
330
1F
100
AcDbEntity
  8
0
  6
Continuous
 62
     7
370
    25
100
AcDbLine
 10
413.6425570386
 20
-464.4033585247
 30
0.0
 11
-116.3574429602
 21
-464.4033585247
 31
0.0
  0
LINE
  5
19D
330
1F
100
AcDbEntity
  8
0
  6
Continuous
 62
     1
370
    25
100
AcDbLine
 10
414.6425570386
 20
-423.4033585247
 30
0.0
 11
-117.3574429614
 21
-423.4033585247
 31
0.0
  0
LINE
  5
19E
330
1F
100
AcDbEntity
  8
0
  6
Continuous
 62
     1
370
    25
100
AcDbLine
 10
-117.3574429614
 20
-463.4033585247
 30
0.0
 11
414.6425570386
 21
-463.4033585247
 31
0.0
  0
SPLINE
  5
19F
330
1F
100
AcDbEntity
  8
0
  6
Continuous
 62
     7
370
    25
100
AcDbSpline
210
0.0
220
0.0
230
1.0
 70
     8
 71
     3
 72
    83
 73
    79
 74
     0
 42
0.00000001
 43
0.00000001
 40
0.0
 40
0.0
 40
0.0
 40
0.0
 40
0.0124725847269122
 40
0.0256856094334516
 40
0.0389032298211332
 40
0.0521251133604437
 40
0.0653508379643267
 40
0.0785799305065025
 40
0.091811899546302
 40
0.1050462610850632
 40
0.1182825572677668
 40
0.1315203686731063
 40
0.1447593212315886
 40
0.1579990889460527
 40
0.1712393935469301
 40
0.184480002071515
 40
0.1977207141623538
 40
0.2109613407945655
 40
0.2242017705559333
 40
0.2374419187955496
 40
0.250681723536782
 40
0.2639211417964246
 40
0.2771601463387981
 40
0.2903987228626106
 40
0.3036368675972451
 40
0.3168745852732618
 40
0.3301118874265976
 40
0.3433487909947361
 40
0.3565853171647006
 40
0.3698214904356447
 40
0.3830573378626116
 40
0.396292888451934
 40
0.4095281726826064
 40
0.4227632221316306
 40
0.4359980691844229
 40
0.4492327468143307
 40
0.4624672884176159
 40
0.475701727692346
 40
0.4889360985512198
 40
0.5021704350596901
 40
0.5154047713917783
 40
0.5286391342757382
 40
0.5418735541208592
 40
0.5551080652530376
 40
0.5683427019871007
 40
0.5815774985766473
 40
0.5948124891438458
 40
0.6080477075807877
 40
0.6212831874132415
 40
0.6345189616160897
 40
0.6477550623680969
 40
0.6609915207312748
 40
0.6742283662376298
 40
0.6874656263629468
 40
0.700703325863851
 40
0.7139414859505941
 40
0.7271801232638557
 40
0.7404192486198858
 40
0.753658865484431
 40
0.7668989681331388
 40
0.7801395394550668
 40
0.7933805483578928
 40
0.806621946740445
 40
0.8198636660122939
 40
0.833105613165102
 40
0.8463476591214973
 40
0.8595895965733878
 40
0.8728312186848056
 40
0.8860722745550152
 40
0.8993124656158321
 40
0.9125514435255322
 40
0.9257888104313121
 40
0.9390241226619518
 40
0.9522568990390066
 40
0.9654866349983963
 40
0.9787128235117488
 40
0.991934983301595
 40
1.0
 40
1.0
 40
1.0
 40
1.0
 10
803.7916167900252
 20
-192.2528783238292
 30
0.0
 10
802.0043130454806
 20
-192.1305998727791
 30
0.0
 10
798.3236015549217
 20
-191.8787838615378
 30
0.0
 10
792.6194506348945
 20
-191.8577282691688
 30
0.0
 10
786.7189447355141
 20
-192.1015717010148
 30
0.0
 10
780.7257104476304
 20
-192.6406291463119
 30
0.0
 10
774.649992001281
 20
-193.4662427928665
 30
0.0
 10
768.4982992581807
 20
-194.5796272684657
 30
0.0
 10
762.278267697306
 20
-195.9788833436529
 30
0.0
 10
755.9973340782215
 20
-197.6624839510289
 30
0.0
 10
749.6630720815455
 20
-199.628346927802
 30
0.0
 10
743.2830853300279
 20
-201.8740922057418
 30
0.0
 10
736.865021245847
 20
-204.3969822379437
 30
0.0
 10
730.4165543912359
 20
-207.1939475013924
 30
0.0
 10
723.945379451206
 20
-210.2615890381316
 30
0.0
 10
717.4592041562456
 20
-213.5961860635588
 30
0.0
 10
710.9657460777391
 20
-217.193699718011
 30
0.0
 10
704.4727179020534
 20
-221.0497827943437
 30
0.0
 10
697.9878188642505
 20
-225.1597873317862
 30
0.0
 10
691.5187234745249
 20
-229.5187744373497
 30
0.0
 10
685.0730817266744
 20
-234.1215161717559
 30
0.0
 10
678.6585115516186
 20
-238.9625017352706
 30
0.0
 10
672.282591103783
 20
-244.0359438100431
 30
0.0
 10
665.9528508931004
 20
-249.3357851104564
 30
0.0
 10
659.6767657841301
 20
-254.8557051802694
 30
0.0
 10
653.4617468895236
 20
-260.5891274643383
 30
0.0
 10
647.315133387696
 20
-266.5292266731564
 30
0.0
 10
641.244184295216
 20
-272.6689364505993
 30
0.0
 10
635.2560702237819
 20
-279.000957348923
 30
0.0
 10
629.3578651502262
 20
-285.517765110072
 30
0.0
 10
623.5565382261608
 20
-292.2116192484679
 30
0.0
 10
617.8589456518883
 20
-299.0745719274864
 30
0.0
 10
612.2718226372094
 20
-306.0984771196004
 30
0.0
 10
606.8017754698644
 20
-313.2750000384708
 30
0.0
 10
601.4552737105956
 20
-320.5956268300544
 30
0.0
 10
596.2386425322452
 20
-328.0516745088406
 30
0.0
 10
591.1580552188939
 20
-335.6343011246754
 30
0.0
 10
586.219525839815
 20
-343.3345161450808
 30
0.0
 10
581.428902111921
 20
-351.1431910376051
 30
0.0
 10
576.7918584635037
 20
-359.0510700362586
 30
0.0
 10
572.3138901591657
 20
-367.048779561373
 30
0.0
 10
568.0003062353026
 20
-375.1268399606101
 30
0.0
 10
563.8562227236316
 20
-383.2756775187008
 30
0.0
 10
559.8865559128668
 20
-391.485637404059
 30
0.0
 10
556.0960170825051
 20
-399.7469944234687
 30
0.0
 10
552.4891074240061
 20
-408.0499637560744
 30
0.0
 10
549.0701128098858
 20
-416.3847125442333
 30
0.0
 10
545.8430988409615
 20
-424.7413715308457
 30
0.0
 10
542.811906178684
 20
-433.110046723445
 30
0.0
 10
539.9801461685852
 20
-441.4808310646719
 30
0.0
 10
537.3511967598854
 20
-449.843816087817
 30
0.0
 10
534.9281987250781
 20
-458.1891035351453
 30
0.0
 10
532.7140521818089
 20
-466.506816915568
 30
0.0
 10
530.7114134174858
 20
-474.7871129770581
 30
0.0
 10
528.9226920147063
 20
-483.0201930679804
 30
0.0
 10
527.350048272659
 20
-491.1963143603151
 30
0.0
 10
525.9953909160043
 20
-499.305800906752
 30
0.0
 10
524.8603750782547
 20
-507.3390545029123
 30
0.0
 10
523.9464005411878
 20
-515.2865653258951
 30
0.0
 10
523.2546102052929
 20
-523.1389223211406
 30
0.0
 10
522.7858887584447
 20
-530.8868233120088
 30
0.0
 10
522.5408615015523
 20
-538.5210848104098
 30
0.0
 10
522.519893278977
 20
-546.0326515156155
 30
0.0
 10
522.7230874563819
 20
-553.4126054937544
 30
0.0
 10
523.1502847824681
 20
-560.6521737344799
 30
0.0
 10
523.8010613065247
 20
-567.742728870929
 30
0.0
 10
524.6747261563203
 20
-574.6758056307937
 30
0.0
 10
525.7703202302313
 20
-581.4431100355388
 30
0.0
 10
527.0866141849725
 20
-588.0365371568904
 30
0.0
 10
528.6221119047751
 20
-594.4481650842376
 30
0.0
 10
530.375024028189
 20
-600.6702935746508
 30
0.0
 10
532.3433547437065
 20
-606.695345713002
 30
0.0
 10
534.5245659044048
 20
-612.5162850972497
 30
0.0
 10
536.9168196785042
 20
-618.1251151799544
 30
0.0
 10
539.5143353527078
 20
-623.5185407107878
 30
0.0
 10
542.3247112673566
 20
-628.6769162481659
 30
0.0
 10
544.9172587043447
 20
-632.9977704790704
 30
0.0
 10
546.6530445332914
 20
-635.4989527283004
 30
0.0
 10
547.3106771555905
 20
-636.4465690839467
 30
0.0
  0
LINE
  5
1A0
330
1F
100
AcDbEntity
  8
0
  6
Continuous
 62
     7
370
    25
100
AcDbLine
 10
872.1954947805
 20
-220.7583135751
 30
0.0
 11
843.911223533
 21
-204.4301513386
 31
0.0
  0
LINE
  5
1A1
330
1F
100
AcDbEntity
  8
0
  6
Continuous
 62
     7
370
    25
100
AcDbLine
 10
577.9328406518
 20
-665.1681461252
 30
0.0
 11
606.2171118993
 21
-681.4963083616
 31
0.0
  0
SPLINE
  5
1A2
330
1F
100
AcDbEntity
  8
0
  6
Continuous
 62
     7
370
    25
100
AcDbSpline
210
0.0
220
0.0
230
1.0
 70
     8
 71
     3
 72
    68
 73
    64
 74
     0
 42
0.00000001
 43
0.00000001
 40
0.0
 40
0.0
 40
0.0
 40
0.0
 40
0.0139167291034611
 40
0.0304012990822447
 40
0.0468916426441072
 40
0.0633873617596317
 40
0.0798879405501716
 40
0.0963927940340141
 40
0.1129013099303568
 40
0.1294128818646599
 40
0.1459269337280472
 40
0.1624429359076638
 40
0.1789604146448485
 40
0.1954789559799674
 40
0.2119982057113051
 40
0.2285178666275801
 40
0.2450376903028635
 40
0.2615574265112949
 40
0.2780769318851926
 40
0.2945960970865378
 40
0.3111148416523793
 40
0.3276331093390501
 40
0.3441508640068395
 40
0.3606680860466063
 40
0.3771847693216558
 40
0.3937009185823048
 40
0.4102165473029319
 40
0.4267316758895565
 40
0.4432463302074026
 40
0.4597605403815449
 40
0.476274339828348
 40
0.4927877644802233
 40
0.5093008521711845
 40
0.5258136421551649
 40
0.5423261747331051
 40
0.5588384909684933
 40
0.5753506324739851
 40
0.5918626412544392
 40
0.6083745595936592
 40
0.6248864299739554
 40
0.6413982950188202
 40
0.6579101897727218
 40
0.6744221504634615
 40
0.6909342199161124
 40
0.7074464409482797
 40
0.7239588563097678
 40
0.7404715085985655
 40
0.7569844401425974
 40
0.7734976928359997
 40
0.7900113079168615
 40
0.8065253256712298
 40
0.8230397850454113
 40
0.8395547231454777
 40
0.8560701745990974
 40
0.8725861707505934
 40
0.8891027386553693
 40
0.9056198998349217
 40
0.9221376687483213
 40
0.9386560509315116
 40
0.9551750407518427
 40
0.9716946187238202
 40
0.9882147483337443
 40
1.0
 40
1.0
 40
1.0
 40
1.0
 10
646.2276302576155
 20
-693.6529922734901
 30
0.0
 10
647.8227260000318
 20
-693.771191743045
 30
0.0
 10
651.3072360720107
 20
-694.02940021995
 30
0.0
 10
656.8083036211068
 20
-694.0781770246615
 30
0.0
 10
662.6970401015317
 20
-693.870216964781
 30
0.0
 10
668.6799511538647
 20
-693.3654173208083
 30
0.0
 10
674.7460584878042
 20
-692.5743961513471
 30
0.0
 10
680.8890654832395
 20
-691.4953571446163
 30
0.0
 10
687.1012932488279
 20
-690.130299651386
 30
0.0
 10
693.375327940288
 20
-688.4806688120989
 30
0.0
 10
699.7035988170777
 20
-686.5485146161957
 30
0.0
 10
706.0785086325899
 20
-684.3361727094392
 30
0.0
 10
712.4924137504895
 20
-681.8463406389502
 30
0.0
 10
718.9376426226637
 20
-679.0820478819414
 30
0.0
 10
725.4065024724384
 20
-676.0466544710855
 30
0.0
 10
731.8912875480924
 20
-672.7438425228902
 30
0.0
 10
738.3842801704819
 20
-669.177613493148
 30
0.0
 10
744.8777666898317
 20
-665.3522779872909
 30
0.0
 10
751.3640450824017
 20
-661.2724488252999
 30
0.0
 10
757.8354383984589
 20
-656.9430298507116
 30
0.0
 10
764.2842933115139
 20
-652.369214687109
 30
0.0
 10
770.702987644609
 20
-647.5564805669418
 30
0.0
 10
777.0839380643985
 20
-642.5105820109317
 30
0.0
 10
783.4196079316232
 20
-637.2375443049218
 30
0.0
 10
789.7025152874268
 20
-631.7436567339822
 30
0.0
 10
795.9252409487696
 20
-626.0354655447285
 30
0.0
 10
802.0804366832879
 20
-620.1197666165592
 30
0.0
 10
808.1608334330721
 20
-614.0035978305751
 30
0.0
 10
814.1592495573764
 20
-607.6942311314375
 30
0.0
 10
820.0685990656195
 20
-601.1991642825814
 30
0.0
 10
825.8818998138264
 20
-594.5261123191972
 30
0.0
 10
831.5922816396517
 20
-587.6829987064575
 30
0.0
 10
837.1929944131163
 20
-580.677946212781
 30
0.0
 10
842.6774159820975
 20
-573.5192675096703
 30
0.0
 10
848.0390599933899
 20
-566.2154555109287
 30
0.0
 10
853.2715835717374
 20
-558.775173465045
 30
0.0
 10
858.3687948406794
 20
-551.2072448152131
 30
0.0
 10
863.3246602702848
 20
-543.5206428420337
 30
0.0
 10
868.1333118379857
 20
-535.724480104303
 30
0.0
 10
872.7890539896064
 20
-527.8279976937891
 30
0.0
 10
877.2863696917709
 20
-519.8405555576724
 30
0.0
 10
881.619927195527
 20
-511.7716213171886
 30
0.0
 10
885.7845870159641
 20
-503.6307580129719
 30
0.0
 10
889.7754085771024
 20
-495.427611456925
 30
0.0
 10
893.5876557862692
 20
-487.1718989216198
 30
0.0
 10
897.2168019936719
 20
-478.8733986922655
 30
0.0
 10
900.6585352560498
 20
-470.5419384827868
 30
0.0
 10
903.9087633234226
 20
-462.1873838028687
 30
0.0
 10
906.963618340243
 20
-453.8196262966025
 30
0.0
 10
909.819461260909
 20
-445.4485720694841
 30
0.0
 10
912.4728859517528
 20
-437.0841300380982
 30
0.0
 10
914.9207230602711
 20
-428.7362002756151
 30
0.0
 10
917.1600433328105
 20
-420.4146625594353
 30
0.0
 10
919.1881615604138
 20
-412.1293644622725
 30
0.0
 10
921.0026367489506
 20
-403.8901115620965
 30
0.0
 10
922.6012849602664
 20
-395.7066502816278
 30
0.0
 10
923.9821434658141
 20
-387.5886789019856
 30
0.0
 10
925.1436152604189
 20
-379.545754222104
 30
0.0
 10
926.0839391361302
 20
-371.5875886293637
 30
0.0
 10
926.8031757393389
 20
-363.7228911259036
 30
0.0
 10
927.2958022621025
 20
-355.9636438834947
 30
0.0
 10
927.5513596602054
 20
-349.0404675618875
 30
0.0
 10
927.5783589203338
 20
-344.7426704623728
 30
0.0
 10
927.5896003543321
 20
-342.9532361518408
 30
0.0
  0
SPLINE
  5
1A3
330
1F
100
AcDbEntity
  8
0
  6
Continuous
 62
     7
370
    25
100
AcDbSpline
210
0.0
220
0.0
230
1.0
 70
     8
 71
     3
 72
    23
 73
    19
 74
     0
 42
0.00000001
 43
0.00000001
 40
0.0
 40
0.0
 40
0.0
 40
0.0
 40
0.0350463108020842
 40
0.1016231445126925
 40
0.1682038060805014
 40
0.234784848091472
 40
0.301365230885345
 40
0.3679438890535707
 40
0.4345195331853141
 40
0.5010906324554661
 40
0.5676554052103151
 40
0.6342118220562647
 40
0.7007576268867655
 40
0.767290381864931
 40
0.8338075422955673
 40
0.9003065661487438
 40
0.9667850603040906
 40
1.0
 40
1.0
 40
1.0
 40
1.0
 10
927.5896003543321
 20
-342.9532361518408
 30
0.0
 10
927.5833527123654
 20
-341.6411335475252
 30
0.0
 10
927.5652365395666
 20
-337.8364536961462
 30
0.0
 10
927.3639617000321
 20
-331.6396306601526
 30
0.0
 10
926.9123476099272
 20
-324.416229033829
 30
0.0
 10
926.2341752511477
 20
-317.3444624475408
 30
0.0
 10
925.3340303748238
 20
-310.4307224171902
 30
0.0
 10
924.2118707954689
 20
-303.6838578623315
 30
0.0
 10
922.8692354167185
 20
-297.111796656127
 30
0.0
 10
921.3075780588348
 20
-290.7224798834424
 30
0.0
 10
919.5287441937411
 20
-284.5235682794255
 30
0.0
 10
917.5347457984143
 20
-278.5226305668237
 30
0.0
 10
915.3282003261858
 20
-272.7266204633091
 30
0.0
 10
912.9108137976918
 20
-267.1437095691327
 30
0.0
 10
910.2890169378062
 20
-261.776402154925
 30
0.0
 10
907.4529459546668
 20
-256.6471467360279
 30
0.0
 10
904.9545564058333
 20
-252.5268395411042
 30
0.0
 10
903.3279098541132
 20
-250.2092798964532
 30
0.0
 10
902.7859587442482
 20
-249.4371367284929
 30
0.0
  0
SPLINE
  5
1A4
330
1F
100
AcDbEntity
  8
0
  6
Continuous
 62
     7
370
    25
100
AcDbSpline
210
0.0
220
0.0
230
1.0
 70
     8
 71
     3
 72
    20
 73
    16
 74
     0
 42
0.00000001
 43
0.00000001
 40
0.0
 40
0.0
 40
0.0
 40
0.0
 40
0.0639072964692942
 40
0.1430016584856819
 40
0.2220501049509142
 40
0.3010575679182773
 40
0.3800298544935747
 40
0.4589730405601684
 40
0.5378930240909044
 40
0.6167952322246297
 40
0.6956844576531539
 40
0.7745647932027159
 40
0.8534396344288324
 40
0.9323117248041943
 40
1.0
 40
1.0
 40
1.0
 40
1.0
 10
826.1335449192563
 20
-291.854431747448
 30
0.0
 10
826.8511212636687
 20
-292.9073551097361
 30
0.0
 10
828.4568003177083
 20
-295.2634207764767
 30
0.0
 10
830.7177377117747
 20
-299.2061544233513
 30
0.0
 10
832.9543171004121
 20
-303.6196533677518
 30
0.0
 10
834.9808523300628
 20
-308.2598999687073
 30
0.0
 10
836.8013021411825
 20
-313.1101652159487
 30
0.0
 10
838.4107826317205
 20
-318.164888710272
 30
0.0
 10
839.8071350949468
 20
-323.4151235917543
 30
0.0
 10
840.9879807518814
 20
-328.8523456592586
 30
0.0
 10
841.950981293632
 20
-334.4677490292507
 30
0.0
 10
842.6957981618243
 20
-340.2512713480319
 30
0.0
 10
843.2160624735707
 20
-346.1962389687405
 30
0.0
 10
843.514780197262
 20
-351.9942091080422
 30
0.0
 10
843.5492801033037
 20
-355.8621775548222
 30
0.0
 10
843.5652137366927
 20
-357.6485821646497
 30
0.0
  0
SPLINE
  5
1A5
330
1F
100
AcDbEntity
  8
0
  6
Continuous
 62
     7
370
    25
100
AcDbSpline
210
0.0
220
0.0
230
1.0
 70
     8
 71
     3
 72
    60
 73
    56
 74
     0
 42
0.00000001
 43
0.00000001
 40
0.0
 40
0.0
 40
0.0
 40
0.0
 40
0.0101509366678402
 40
0.0294512519986533
 40
0.0487532906454766
 40
0.0680561119454464
 40
0.0873598553326952
 40
0.1066646042480878
 40
0.1259703976300093
 40
0.1452772395739941
 40
0.1645851072084045
 40
0.1838939570295436
 40
0.2032037299358034
 40
0.2225143551817649
 40
0.241825753447701
 40
0.261137839192688
 40
0.2804505224333547
 40
0.2997637100665756
 40
0.3190773068339377
 40
0.3383912160086132
 40
0.3577053398712603
 40
0.3770195800305144
 40
0.3963338376352732
 40
0.4156479862424582
 40
0.4349619207691152
 40
0.4542755418553092
 40
0.4735887503026939
 40
0.4929014473575584
 40
0.5122135351361112
 40
0.5315249172446066
 40
0.5508354996581895
 40
0.5701451919358156
 40
0.5894539088650423
 40
0.608761572650653
 40
0.6280681157842278
 40
0.6473734847582483
 40
0.6666776448162524
 40
0.6859805859581984
 40
0.7052823304430077
 40
0.724582942041307
 40
0.7438825372797563
 40
0.7631812988670057
 40
0.7824794913761712
 40
0.8017774718209857
 40
0.8210755568237703
 40
0.8403743210196587
 40
0.8596744911389322
 40
0.8789769624434269
 40
0.8982828084074755
 40
0.9175932784386007
 40
0.9369097770109853
 40
0.956233816593038
 40
0.9755669369100471
 40
0.994910585357459
 40
1.0
 40
1.0
 40
1.0
 40
1.0
 10
843.5652137366927
 20
-357.6485821646497
 30
0.0
 10
843.5590264071624
 20
-358.7526038457379
 30
0.0
 10
843.541074901094
 20
-361.9557388672298
 30
0.0
 10
843.3415149400047
 20
-367.3543446674568
 30
0.0
 10
842.8936424891025
 20
-373.8732130512993
 30
0.0
 10
842.221279455081
 20
-380.4968726859697
 30
0.0
 10
841.3292941116563
 20
-387.2117577772702
 30
0.0
 10
840.2180750914088
 20
-394.0071814517644
 30
0.0
 10
838.8896864875012
 20
-400.8715315308265
 30
0.0
 10
837.3462177437988
 20
-407.7932825272501
 30
0.0
 10
835.5902214858314
 20
-414.7607516048433
 30
0.0
 10
833.6245907676636
 20
-421.7621909339887
 30
0.0
 10
831.4525855732552
 20
-428.7857897002002
 30
0.0
 10
829.0778184468621
 20
-435.8197001174704
 30
0.0
 10
826.5042502718761
 20
-442.8520568051541
 30
0.0
 10
823.736182582676
 20
-449.8709977412421
 30
0.0
 10
820.7782501026575
 20
-456.8646845909909
 30
0.0
 10
817.6354125547708
 20
-463.8213229971049
 30
0.0
 10
814.3129460298061
 20
-470.7291826670011
 30
0.0
 10
810.8164338612554
 20
-477.5766172900931
 30
0.0
 10
807.1517570426015
 20
-484.3520842618918
 30
0.0
 10
803.3250841978194
 20
-491.0441642034652
 30
0.0
 10
799.3428629948405
 20
-497.6415771552254
 30
0.0
 10
795.211808118037
 20
-504.1332043237035
 30
0.0
 10
790.9388895883335
 20
-510.5081076624026
 30
0.0
 10
786.5313188675781
 20
-516.7555513243533
 30
0.0
 10
781.9965381929455
 20
-522.8650173950766
 30
0.0
 10
777.342208551752
 20
-528.8262231813371
 30
0.0
 10
772.5761968828979
 20
-534.6291388184317
 30
0.0
 10
767.7065629210684
 20
-540.2640045342381
 30
0.0
 10
762.7415456869594
 20
-545.721347552621
 30
0.0
 10
757.6895496228278
 20
-550.991998618746
 30
0.0
 10
752.5591303676716
 20
-556.067108128095
 30
0.0
 10
747.3589801602224
 20
-560.9381618391114
 30
0.0
 10
742.0979128505559
 20
-565.5969961459327
 30
0.0
 10
736.7848484926055
 20
-570.0358128818451
 30
0.0
 10
731.4287974804416
 20
-574.2471936149509
 30
0.0
 10
726.0388441812869
 20
-578.2241133842851
 30
0.0
 10
720.6241300095866
 20
-581.959953804457
 30
0.0
 10
715.1938358784827
 20
-585.4485154438544
 30
0.0
 10
709.7571639694895
 20
-588.6840293335598
 30
0.0
 10
704.3233187494235
 20
-591.6611674671401
 30
0.0
 10
698.9014879413896
 20
-594.3750515805159
 30
0.0
 10
693.5008367535232
 20
-596.8212545653932
 30
0.0
 10
688.1304757341163
 20
-598.9958137506234
 30
0.0
 10
682.7994366179573
 20
-600.8952402173908
 30
0.0
 10
677.5166432779209
 20
-602.5165070950818
 30
0.0
 10
672.2908752643073
 20
-603.8571053054243
 30
0.0
 10
667.130845893466
 20
-604.9148030163494
 30
0.0
 10
662.044815934771
 20
-605.6885144102774
 30
0.0
 10
657.0419539541263
 20
-606.1750104404874
 30
0.0
 10
652.1271950951327
 20
-606.3811408727706
 30
0.0
 10
647.3204063852372
 20
-606.2781249992679
 30
0.0
 10
643.7489546448476
 20
-606.0474047909854
 30
0.0
 10
641.8210256940811
 20
-605.7594931067363
 30
0.0
 10
641.4194374938751
 20
-605.6995210133405
 30
0.0
  0
SPLINE
  5
1A6
330
1F
100
AcDbEntity
  8
0
  6
Continuous
 62
     7
370
    25
100
AcDbSpline
210
0.0
220
0.0
230
1.0
 70
     8
 71
     3
 72
    13
 73
     9
 74
     0
 42
0.00000001
 43
0.00000001
 40
0.0
 40
0.0
 40
0.0
 40
0.0
 40
0.0884811926552516
 40
0.3131877944236839
 40
0.5300342937928455
 40
0.739229775121234
 40
0.9449828409041552
 40
1.0
 40
1.0
 40
1.0
 40
1.0
 10
835.1114201022248
 20
-491.5545798576412
 30
0.0
 10
835.2332289420553
 20
-491.6254722404464
 30
0.0
 10
835.6643831878678
 20
-491.8764027302589
 30
0.0
 10
836.2392748104992
 20
-492.5836410148856
 30
0.0
 10
836.8180377514198
 20
-493.671436770481
 30
0.0
 10
837.1848179773393
 20
-494.9917259150724
 30
0.0
 10
837.3124888103154
 20
-496.1219514319019
 30
0.0
 10
837.3199523710811
 20
-496.79553632882
 30
0.0
 10
837.32152702904
 20
-496.9376489011259
 30
0.0
  0
SPLINE
  5
1A7
330
1F
100
AcDbEntity
  8
0
  6
Continuous
 62
     7
370
    25
100
AcDbSpline
210
0.0
220
0.0
230
1.0
 70
     8
 71
     3
 72
    23
 73
    19
 74
     0
 42
0.00000001
 43
0.00000001
 40
0.0
 40
0.0
 40
0.0
 40
0.0
 40
0.033589418317393
 40
0.0980090686472628
 40
0.1626136377275712
 40
0.2273772989805812
 40
0.2922707044179172
 40
0.3572397387519156
 40
0.4222220655242531
 40
0.4871348730787499
 40
0.5519085973445665
 40
0.6164811775628546
 40
0.680807825998502
 40
0.7448964574291644
 40
0.8088825689857988
 40
0.8730223831884382
 40
0.9380494480027766
 40
1.0
 40
1.0
 40
1.0
 40
1.0
 10
837.32152702904
 20
-496.9376489011259
 30
0.0
 10
837.3158002182458
 20
-497.2193797139063
 30
0.0
 10
837.2990902119293
 20
-498.0414295127131
 30
0.0
 10
837.1104852399596
 20
-499.5025392802947
 30
0.0
 10
836.685862357122
 20
-501.3126242208899
 30
0.0
 10
836.0549545240168
 20
-503.1604122803963
 30
0.0
 10
835.2350137710913
 20
-504.9964881604614
 30
0.0
 10
834.2443619335913
 20
-506.7753031961655
 30
0.0
 10
833.107851284719
 20
-508.4516747332634
 30
0.0
 10
831.8546466874702
 20
-509.9834958042426
 30
0.0
 10
830.5179161121446
 20
-511.3327776605539
 30
0.0
 10
829.1338453315685
 20
-512.4670673615005
 30
0.0
 10
827.7406655367552
 20
-513.3609018870613
 30
0.0
 10
826.3776703773315
 20
-513.9965361986866
 30
0.0
 10
825.08202347332
 20
-514.3678956570591
 30
0.0
 10
823.8901136370741
 20
-514.4709417726341
 30
0.0
 10
822.8352375874967
 20
-514.3442435697705
 30
0.0
 10
822.2548981822035
 20
-514.0640809647422
 30
0.0
 10
821.9717589376152
 20
-513.927393661371
 30
0.0
  0
SPLINE
  5
1A8
330
1F
100
AcDbEntity
  8
0
  6
Continuous
 62
     7
370
    25
100
AcDbSpline
210
0.0
220
0.0
230
1.0
 70
     8
 71
     3
 72
    73
 73
    69
 74
     0
 42
0.00000001
 43
0.00000001
 40
0.0
 40
0.0
 40
0.0
 40
0.0
 40
0.0004597940251095
 40
0.015960603496653
 40
0.0314516594892928
 40
0.0469334833421726
 40
0.0624069598614658
 40
0.0778731874438814
 40
0.0933333504479447
 40
0.108788621974682
 40
0.124240097628846
 40
0.1396887563074655
 40
0.1551354421265139
 40
0.1705808614093233
 40
0.1860255894273038
 40
0.2014700827219819
 40
0.2169145972835638
 40
0.2323594147737122
 40
0.2478047490366258
 40
0.2632507492513244
 40
0.2786975121902925
 40
0.294145092737139
 40
0.3095935127092784
 40
0.3250427681275734
 40
0.3404928351177391
 40
0.3559436746390588
 40
0.3713952362285069
 40
0.3868474609310865
 40
0.4023002835661083
 40
0.4177536344573791
 40
0.4332074407348587
 40
0.4486616272971223
 40
0.4641161175083888
 40
0.4795708336909342
 40
0.4950256974632063
 40
0.5104806299658456
 40
0.5259355484710299
 40
0.5413903506884373
 40
0.5568449571117787
 40
0.5722992882562915
 40
0.5877532648260595
 40
0.6032068079718623
 40
0.6186598396745981
 40
0.6341122832993493
 40
0.6495640643742958
 40
0.6650151116601116
 40
0.6804653585896095
 40
0.6959147451741948
 40
0.7113632204932276
 40
0.7268107459039048
 40
0.7422572991319518
 40
0.7577028794246856
 40
0.7731475139641372
 40
0.7885912657422932
 40
0.8040342430831476
 40
0.8194766109416983
 40
0.834918603997295
 40
0.8503604964779451
 40
0.8658026021839258
 40
0.8812454168157258
 40
0.8966895622037181
 40
0.9121357981666188
 40
0.9275850278090456
 40
0.9430382917301152
 40
0.9584967455362775
 40
0.9739616144707585
 40
0.9894341195317564
 40
0.9999999999999999
 40
0.9999999999999999
 40
0.9999999999999999
 40
0.9999999999999999
 10
625.4349668980107
 20
-596.1123612207151
 30
0.0
 10
625.4064842473928
 20
-596.0764136888203
 30
0.0
 10
624.4177800271949
 20
-594.8285847220948
 30
0.0
 10
622.6428096839517
 20
-592.1431823538435
 30
0.0
 10
620.1314331548712
 20
-588.0452532783555
 30
0.0
 10
617.841787447791
 20
-583.6890984260713
 30
0.0
 10
615.7495008121598
 20
-579.1188367156738
 30
0.0
 10
613.8654369477036
 20
-574.3321639397687
 30
0.0
 10
612.1906366400985
 20
-569.3396069361754
 30
0.0
 10
610.7283836035372
 20
-564.1486685871068
 30
0.0
 10
609.4809682940262
 20
-558.768078685813
 30
0.0
 10
608.4505437108472
 20
-553.2066557113053
 30
0.0
 10
607.6388826624396
 20
-547.4736056217761
 30
0.0
 10
607.0474285915275
 20
-541.5784300340182
 30
0.0
 10
606.6772686079257
 20
-535.5309341717588
 30
0.0
 10
606.5291294232933
 20
-529.3412172147104
 30
0.0
 10
606.6033667697832
 20
-523.0196411129622
 30
0.0
 10
606.8999610708779
 20
-516.5768087129652
 30
0.0
 10
607.4185163648307
 20
-510.023529093426
 30
0.0
 10
608.1582589702992
 20
-503.3708120823521
 30
0.0
 10
609.1180369429068
 20
-496.6298482151487
 30
0.0
 10
610.2963208845675
 20
-489.8119871224675
 30
0.0
 10
611.6912059152932
 20
-482.9287159504148
 30
0.0
 10
613.3004146662036
 20
-475.9916378822111
 30
0.0
 10
615.1213011718194
 20
-469.012450800516
 30
0.0
 10
617.1508555627241
 20
-462.0029261070108
 30
0.0
 10
619.3857094791503
 20
-454.9748877043129
 30
0.0
 10
621.8221421426895
 20
-447.9401911396676
 30
0.0
 10
624.4560870366512
 20
-440.9107029084787
 30
0.0
 10
627.2831391559961
 20
-433.8982799167562
 30
0.0
 10
630.2985627956243
 20
-426.9147491039215
 30
0.0
 10
633.4972998515663
 20
-419.9718872303438
 30
0.0
 10
636.8739786137504
 20
-413.0814008369937
 30
0.0
 10
640.422923031876
 20
-406.2549063874424
 30
0.0
 10
644.1381624378907
 20
-399.5039106048266
 30
0.0
 10
648.0134414137555
 20
-392.8397915275522
 30
0.0
 10
652.0422286373916
 20
-386.2737819792455
 30
0.0
 10
656.2177295570012
 20
-379.8169470886459
 30
0.0
 10
660.5328982015743
 20
-373.480165004642
 30
0.0
 10
664.9804510146554
 20
-367.274105939027
 30
0.0
 10
669.552877045454
 20
-361.2092172581096
 30
0.0
 10
674.2424504963276
 20
-355.2957056487716
 30
0.0
 10
679.0412436319826
 20
-349.5435196149096
 30
0.0
 10
683.9411400444619
 20
-343.9623323226321
 30
0.0
 10
688.9338482718704
 20
-338.5615248114178
 30
0.0
 10
694.0109157729465
 20
-333.3501695888541
 30
0.0
 10
699.1637432649295
 20
-328.3370146275941
 30
0.0
 10
704.3835994386887
 20
-323.5304677854727
 30
0.0
 10
709.6616360728099
 20
-318.9385816738225
 30
0.0
 10
714.9889035771748
 20
-314.5690390057921
 30
0.0
 10
720.3563670062479
 20
-310.4291384666637
 30
0.0
 10
725.7549225917999
 20
-306.5257811637209
 30
0.0
 10
731.1754148539829
 20
-302.8654577328768
 30
0.0
 10
736.6086543523282
 20
-299.4542362144181
 30
0.0
 10
742.0454361462162
 20
-296.2977508252245
 30
0.0
 10
747.476558986362
 20
-293.4011918883097
 30
0.0
 10
752.8928401115555
 20
-290.769299466955
 30
0.0
 10
758.2851287856987
 20
-288.4063585197766
 30
0.0
 10
763.6443366278864
 20
-286.3161852308496
 30
0.0
 10
768.961461103527
 20
-284.502129932787
 30
0.0
 10
774.2276261682354
 20
-282.9670455550574
 30
0.0
 10
779.434049440884
 20
-281.7134076944017
 30
0.0
 10
784.5722340569245
 20
-280.7428975807334
 30
0.0
 10
789.633343983355
 20
-280.0579933597834
 30
0.0
 10
794.610612942416
 20
-279.656079236765
 30
0.0
 10
799.49040337573
 20
-279.5515052958133
 30
0.0
 10
803.7778440664276
 20
-279.6782618655994
 30
0.0
 10
806.3862968969113
 20
-279.9640732526639
 30
0.0
 10
807.4447573296057
 20
-280.0800500650048
 30
0.0
  0
SPLINE
  5
1A9
330
1F
100
AcDbEntity
  8
0
  6
Continuous
 62
     7
370
    25
100
AcDbSpline
210
0.0
220
0.0
230
1.0
 70
     8
 71
     3
 72
    13
 73
     9
 74
     0
 42
0.00000001
 43
0.00000001
 40
0.0
 40
0.0
 40
0.0
 40
0.0
 40
0.088481192655272
 40
0.313187794423714
 40
0.5300342937928939
 40
0.7392297751212663
 40
0.9449828409041943
 40
1.0
 40
1.0
 40
1.0
 40
1.0
 10
871.1325684752059
 20
-408.5073609359845
 30
0.0
 10
871.2543773150365
 20
-408.5782533187896
 30
0.0
 10
871.685531560849
 20
-408.8291838086022
 30
0.0
 10
872.2604231834805
 20
-409.5364220932291
 30
0.0
 10
872.839186124401
 20
-410.6242178488245
 30
0.0
 10
873.2059663503204
 20
-411.944506993416
 30
0.0
 10
873.3336371832966
 20
-413.0747325102452
 30
0.0
 10
873.3411007440621
 20
-413.7483174071633
 30
0.0
 10
873.3426754020211
 20
-413.8904299794691
 30
0.0
  0
SPLINE
  5
1AA
330
1F
100
AcDbEntity
  8
0
  6
Continuous
 62
     7
370
    25
100
AcDbSpline
210
0.0
220
0.0
230
1.0
 70
     8
 71
     3
 72
    23
 73
    19
 74
     0
 42
0.00000001
 43
0.00000001
 40
0.0
 40
0.0
 40
0.0
 40
0.0
 40
0.0335894183173931
 40
0.0980090686472633
 40
0.1626136377275723
 40
0.2273772989805816
 40
0.2922707044179132
 40
0.3572397387519108
 40
0.4222220655242459
 40
0.4871348730787405
 40
0.5519085973445618
 40
0.6164811775628429
 40
0.6808078259984965
 40
0.7448964574291614
 40
0.8088825689857969
 40
0.8730223831884312
 40
0.9380494480027683
 40
0.9999999999999999
 40
0.9999999999999999
 40
0.9999999999999999
 40
0.9999999999999999
 10
873.3426754020211
 20
-413.8904299794691
 30
0.0
 10
873.3369485912269
 20
-414.1721607922495
 30
0.0
 10
873.3202385849104
 20
-414.9942105910563
 30
0.0
 10
873.1316336129407
 20
-416.4553203586379
 30
0.0
 10
872.7070107301031
 20
-418.2654052992331
 30
0.0
 10
872.0761028969981
 20
-420.1131933587395
 30
0.0
 10
871.2561621440724
 20
-421.9492692388045
 30
0.0
 10
870.2655103065725
 20
-423.7280842745085
 30
0.0
 10
869.1289996577002
 20
-425.4044558116064
 30
0.0
 10
867.8757950604514
 20
-426.9362768825857
 30
0.0
 10
866.539064485126
 20
-428.2855587388969
 30
0.0
 10
865.1549937045497
 20
-429.4198484398435
 30
0.0
 10
863.7618139097365
 20
-430.3136829654044
 30
0.0
 10
862.3988187503127
 20
-430.9493172770298
 30
0.0
 10
861.1031718463012
 20
-431.3206767354022
 30
0.0
 10
859.9112620100553
 20
-431.4237228509773
 30
0.0
 10
858.8563859604778
 20
-431.2970246481138
 30
0.0
 10
858.2760465551847
 20
-431.0168620430855
 30
0.0
 10
857.9929073105963
 20
-430.8801747397141
 30
0.0
  0
SPLINE
  5
1AB
330
1F
100
AcDbEntity
  8
0
  6
Continuous
 62
     7
370
    25
100
AcDbSpline
210
0.0
220
0.0
230
1.0
 70
     8
 71
     3
 72
    13
 73
     9
 74
     0
 42
0.00000001
 43
0.00000001
 40
0.0
 40
0.0
 40
0.0
 40
0.0
 40
0.0884811926552154
 40
0.3131877944236476
 40
0.5300342937928076
 40
0.7392297751211672
 40
0.9449828409040886
 40
1.0
 40
1.0
 40
1.0
 40
1.0
 10
781.2019618693953
 20
-564.271740275574
 30
0.0
 10
781.3237707092259
 20
-564.3426326583789
 30
0.0
 10
781.7549249550383
 20
-564.5935631481914
 30
0.0
 10
782.3298165776697
 20
-565.3008014328183
 30
0.0
 10
782.9085795185903
 20
-566.3885971884133
 30
0.0
 10
783.27535974451
 20
-567.7088863330049
 30
0.0
 10
783.4030305774862
 20
-568.8391118498341
 30
0.0
 10
783.4104941382517
 20
-569.5126967467526
 30
0.0
 10
783.4120687962106
 20
-569.6548093190586
 30
0.0
  0
SPLINE
  5
1AC
330
1F
100
AcDbEntity
  8
0
  6
Continuous
 62
     7
370
    25
100
AcDbSpline
210
0.0
220
0.0
230
1.0
 70
     8
 71
     3
 72
    23
 73
    19
 74
     0
 42
0.00000001
 43
0.00000001
 40
0.0
 40
0.0
 40
0.0
 40
0.0
 40
0.0335894183173933
 40
0.0980090686472637
 40
0.1626136377275733
 40
0.2273772989805886
 40
0.2922707044179166
 40
0.3572397387519181
 40
0.4222220655242542
 40
0.4871348730787496
 40
0.5519085973445699
 40
0.6164811775628543
 40
0.6808078259985039
 40
0.7448964574291685
 40
0.808882568985804
 40
0.8730223831884407
 40
0.9380494480027709
 40
0.9999999999999999
 40
0.9999999999999999
 40
0.9999999999999999
 40
0.9999999999999999
 10
783.4120687962106
 20
-569.6548093190586
 30
0.0
 10
783.4063419854165
 20
-569.936540131839
 30
0.0
 10
783.3896319791
 20
-570.7585899306457
 30
0.0
 10
783.2010270071304
 20
-572.2196996982275
 30
0.0
 10
782.7764041242928
 20
-574.0297846388225
 30
0.0
 10
782.1454962911874
 20
-575.8775726983291
 30
0.0
 10
781.325555538262
 20
-577.713648578394
 30
0.0
 10
780.334903700762
 20
-579.4924636140981
 30
0.0
 10
779.1983930518896
 20
-581.168835151196
 30
0.0
 10
777.9451884546409
 20
-582.7006562221752
 30
0.0
 10
776.6084578793153
 20
-584.0499380784864
 30
0.0
 10
775.2243870987392
 20
-585.1842277794332
 30
0.0
 10
773.8312073039259
 20
-586.078062304994
 30
0.0
 10
772.4682121445021
 20
-586.7136966166194
 30
0.0
 10
771.1725652404907
 20
-587.0850560749918
 30
0.0
 10
769.9806554042449
 20
-587.1881021905667
 30
0.0
 10
768.9257793546675
 20
-587.0614039877033
 30
0.0
 10
768.3454399493744
 20
-586.7812413826749
 30
0.0
 10
768.062300704786
 20
-586.6445540793037
 30
0.0
  0
SPLINE
  5
1AD
330
1F
100
AcDbEntity
  8
0
  6
Continuous
 62
     7
370
    25
100
AcDbSpline
210
0.0
220
0.0
230
1.0
 70
     8
 71
     3
 72
    13
 73
     9
 74
     0
 42
0.00000001
 43
0.00000001
 40
0.0
 40
0.0
 40
0.0
 40
0.0
 40
0.088481192655179
 40
0.3131877944236209
 40
0.5300342937927696
 40
0.7392297751211435
 40
0.9449828409040509
 40
1.0
 40
1.0
 40
1.0
 40
1.0
 10
883.7815136810754
 20
-327.7732697665114
 30
0.0
 10
883.9033225209058
 20
-327.8441621493165
 30
0.0
 10
884.3344767667184
 20
-328.0950926391289
 30
0.0
 10
884.9093683893499
 20
-328.8023309237556
 30
0.0
 10
885.4881313302703
 20
-329.8901266793508
 30
0.0
 10
885.85491155619
 20
-331.2104158239421
 30
0.0
 10
885.9825823891663
 20
-332.3406413407717
 30
0.0
 10
885.9900459499319
 20
-333.0142262376901
 30
0.0
 10
885.9916206078908
 20
-333.1563388099962
 30
0.0
  0
SPLINE
  5
1AE
330
1F
100
AcDbEntity
  8
0
  6
Continuous
 62
     7
370
    25
100
AcDbSpline
210
0.0
220
0.0
230
1.0
 70
     8
 71
     3
 72
    23
 73
    19
 74
     0
 42
0.00000001
 43
0.00000001
 40
0.0
 40
0.0
 40
0.0
 40
0.0
 40
0.033589418317393
 40
0.0980090686472638
 40
0.1626136377275733
 40
0.2273772989805833
 40
0.2922707044179142
 40
0.357239738751907
 40
0.4222220655242411
 40
0.4871348730787302
 40
0.5519085973445503
 40
0.6164811775628309
 40
0.6808078259984848
 40
0.7448964574291478
 40
0.8088825689857837
 40
0.8730223831884197
 40
0.9380494480027584
 40
1.0
 40
1.0
 40
1.0
 40
1.0
 10
885.9916206078908
 20
-333.1563388099962
 30
0.0
 10
885.9858937970967
 20
-333.4380696227767
 30
0.0
 10
885.9691837907802
 20
-334.2601194215834
 30
0.0
 10
885.7805788188105
 20
-335.7212291891651
 30
0.0
 10
885.3559559359729
 20
-337.5313141297602
 30
0.0
 10
884.7250481028677
 20
-339.3791021892667
 30
0.0
 10
883.9051073499422
 20
-341.2151780693316
 30
0.0
 10
882.9144555124423
 20
-342.9939931050355
 30
0.0
 10
881.77794486357
 20
-344.6703646421334
 30
0.0
 10
880.5247402663214
 20
-346.2021857131126
 30
0.0
 10
879.188009690996
 20
-347.5514675694238
 30
0.0
 10
877.8039389104198
 20
-348.6857572703705
 30
0.0
 10
876.4107591156065
 20
-349.5795917959314
 30
0.0
 10
875.0477639561826
 20
-350.2152261075568
 30
0.0
 10
873.7521170521712
 20
-350.5865855659293
 30
0.0
 10
872.5602072159253
 20
-350.6896316815045
 30
0.0
 10
871.5053311663479
 20
-350.5629334786409
 30
0.0
 10
870.9249917610546
 20
-350.2827708736126
 30
0.0
 10
870.6418525164661
 20
-350.1460835702413
 30
0.0
  0
SPLINE
  5
1AF
330
1F
100
AcDbEntity
  8
0
  6
Continuous
 62
     7
370
    25
100
AcDbSpline
210
0.0
220
0.0
230
1.0
 70
     8
 71
     3
 72
    13
 73
     9
 74
     0
 42
0.00000001
 43
0.00000001
 40
0.0
 40
0.0
 40
0.0
 40
0.0
 40
0.0884811926552053
 40
0.3131877944236406
 40
0.5300342937928062
 40
0.7392297751211712
 40
0.944982840904086
 40
1.0
 40
1.0
 40
1.0
 40
1.0
 10
717.6114201022102
 20
-615.588313698853
 30
0.0
 10
717.7332289420408
 20
-615.6592060816579
 30
0.0
 10
718.1643831878532
 20
-615.9101365714704
 30
0.0
 10
718.7392748104847
 20
-616.6173748560973
 30
0.0
 10
719.3180377514052
 20
-617.7051706116923
 30
0.0
 10
719.6848179773249
 20
-619.0254597562838
 30
0.0
 10
719.8124888103011
 20
-620.1556852731134
 30
0.0
 10
719.8199523710666
 20
-620.8292701700316
 30
0.0
 10
719.8215270290256
 20
-620.9713827423376
 30
0.0
  0
SPLINE
  5
1B0
330
1F
100
AcDbEntity
  8
0
  6
Continuous
 62
     7
370
    25
100
AcDbSpline
210
0.0
220
0.0
230
1.0
 70
     8
 71
     3
 72
    23
 73
    19
 74
     0
 42
0.00000001
 43
0.00000001
 40
0.0
 40
0.0
 40
0.0
 40
0.0
 40
0.0335894183173932
 40
0.0980090686472698
 40
0.1626136377275777
 40
0.227377298980593
 40
0.2922707044179215
 40
0.3572397387519192
 40
0.4222220655242485
 40
0.487134873078742
 40
0.5519085973445607
 40
0.6164811775628367
 40
0.6808078259984895
 40
0.7448964574291518
 40
0.8088825689857908
 40
0.8730223831884251
 40
0.9380494480027654
 40
0.9999999999999999
 40
0.9999999999999999
 40
0.9999999999999999
 40
0.9999999999999999
 10
719.8215270290256
 20
-620.9713827423376
 30
0.0
 10
719.8158002182314
 20
-621.253113555118
 30
0.0
 10
719.799090211915
 20
-622.0751633539247
 30
0.0
 10
719.6104852399453
 20
-623.5362731215066
 30
0.0
 10
719.1858623571077
 20
-625.3463580621017
 30
0.0
 10
718.5549545240024
 20
-627.1941461216082
 30
0.0
 10
717.735013771077
 20
-629.030222001673
 30
0.0
 10
716.7443619335769
 20
-630.8090370373772
 30
0.0
 10
715.6078512847047
 20
-632.4854085744748
 30
0.0
 10
714.354646687456
 20
-634.017229645454
 30
0.0
 10
713.0179161121305
 20
-635.3665115017652
 30
0.0
 10
711.6338453315545
 20
-636.500801202712
 30
0.0
 10
710.2406655367413
 20
-637.3946357282729
 30
0.0
 10
708.8776703773174
 20
-638.0302700398983
 30
0.0
 10
707.5820234733059
 20
-638.4016294982707
 30
0.0
 10
706.39011363706
 20
-638.5046756138458
 30
0.0
 10
705.3352375874827
 20
-638.3779774109823
 30
0.0
 10
704.7548981821894
 20
-638.0978148059539
 30
0.0
 10
704.471758937601
 20
-637.9611275025827
 30
0.0
  0
SPLINE
  5
1B1
330
1F
100
AcDbEntity
  8
0
  6
Continuous
 62
     7
370
    25
100
AcDbSpline
210
0.0
220
0.0
230
1.0
 70
     8
 71
     3
 72
    13
 73
     9
 74
     0
 42
0.00000001
 43
0.00000001
 40
0.0
 40
0.0
 40
0.0
 40
0.0
 40
0.0884811926551652
 40
0.3131877944236107
 40
0.5300342937927804
 40
0.739229775121154
 40
0.9449828409040637
 40
1.0
 40
1.0
 40
1.0
 40
1.0
 10
871.1325684752138
 20
-261.6433398734159
 30
0.0
 10
871.2543773150443
 20
-261.714232256221
 30
0.0
 10
871.6855315608567
 20
-261.9651627460334
 30
0.0
 10
872.2604231834883
 20
-262.67240103066
 30
0.0
 10
872.8391861244089
 20
-263.7601967862552
 30
0.0
 10
873.2059663503285
 20
-265.0804859308466
 30
0.0
 10
873.3336371833049
 20
-266.2107114476762
 30
0.0
 10
873.3411007440703
 20
-266.8842963445945
 30
0.0
 10
873.3426754020293
 20
-267.0264089169007
 30
0.0
  0
SPLINE
  5
1B2
330
1F
100
AcDbEntity
  8
0
  6
Continuous
 62
     7
370
    25
100
AcDbSpline
210
0.0
220
0.0
230
1.0
 70
     8
 71
     3
 72
    23
 73
    19
 74
     0
 42
0.00000001
 43
0.00000001
 40
0.0
 40
0.0
 40
0.0
 40
0.0
 40
0.0335894183173931
 40
0.0980090686472639
 40
0.162613637727573
 40
0.2273772989805824
 40
0.2922707044179134
 40
0.3572397387519055
 40
0.4222220655242401
 40
0.487134873078728
 40
0.5519085973445521
 40
0.616481177562831
 40
0.680807825998485
 40
0.7448964574291452
 40
0.8088825689857817
 40
0.8730223831884167
 40
0.9380494480027523
 40
0.9999999999999999
 40
0.9999999999999999
 40
0.9999999999999999
 40
0.9999999999999999
 10
873.3426754020293
 20
-267.0264089169007
 30
0.0
 10
873.3369485912351
 20
-267.3081397296812
 30
0.0
 10
873.3202385849186
 20
-268.1301895284879
 30
0.0
 10
873.1316336129491
 20
-269.5912992960695
 30
0.0
 10
872.7070107301114
 20
-271.4013842366646
 30
0.0
 10
872.0761028970061
 20
-273.2491722961712
 30
0.0
 10
871.2561621440807
 20
-275.085248176236
 30
0.0
 10
870.2655103065808
 20
-276.8640632119399
 30
0.0
 10
869.1289996577086
 20
-278.5404347490378
 30
0.0
 10
867.8757950604598
 20
-280.072255820017
 30
0.0
 10
866.5390644851344
 20
-281.4215376763283
 30
0.0
 10
865.1549937045583
 20
-282.5558273772749
 30
0.0
 10
863.761813909745
 20
-283.4496619028359
 30
0.0
 10
862.3988187503212
 20
-284.0852962144613
 30
0.0
 10
861.1031718463098
 20
-284.4566556728338
 30
0.0
 10
859.9112620100639
 20
-284.5597017884089
 30
0.0
 10
858.8563859604863
 20
-284.4330035855455
 30
0.0
 10
858.276046555193
 20
-284.1528409805171
 30
0.0
 10
857.9929073106047
 20
-284.0161536771458
 30
0.0
  0
SPLINE
  5
1B3
330
1F
100
AcDbEntity
  8
0
  6
Continuous
 62
     7
370
    25
100
AcDbSpline
210
0.0
220
0.0
230
1.0
 70
     8
 71
     3
 72
    13
 73
     9
 74
     0
 42
0.00000001
 43
0.00000001
 40
0.0
 40
0.0
 40
0.0
 40
0.0
 40
0.0884811926552646
 40
0.3131877944236878
 40
0.5300342937928592
 40
0.7392297751212343
 40
0.9449828409041582
 40
1.0
 40
1.0
 40
1.0
 40
1.0
 10
654.020878335027
 20
-637.6918170096806
 30
0.0
 10
654.1426871748577
 20
-637.7627093924857
 30
0.0
 10
654.5738414206701
 20
-638.0136398822981
 30
0.0
 10
655.1487330433016
 20
-638.7208781669251
 30
0.0
 10
655.7274959842221
 20
-639.8086739225203
 30
0.0
 10
656.0942762101416
 20
-641.128963067112
 30
0.0
 10
656.2219470431178
 20
-642.2591885839411
 30
0.0
 10
656.2294106038833
 20
-642.9327734808593
 30
0.0
 10
656.2309852618422
 20
-643.0748860531652
 30
0.0
  0
SPLINE
  5
1B4
330
1F
100
AcDbEntity
  8
0
  6
Continuous
 62
     7
370
    25
100
AcDbSpline
210
0.0
220
0.0
230
1.0
 70
     8
 71
     3
 72
    23
 73
    19
 74
     0
 42
0.00000001
 43
0.00000001
 40
0.0
 40
0.0
 40
0.0
 40
0.0
 40
0.0335894183173931
 40
0.0980090686472731
 40
0.162613637727579
 40
0.2273772989805964
 40
0.2922707044179218
 40
0.3572397387519188
 40
0.4222220655242542
 40
0.4871348730787472
 40
0.5519085973445657
 40
0.6164811775628531
 40
0.6808078259985008
 40
0.7448964574291632
 40
0.8088825689857967
 40
0.8730223831884366
 40
0.9380494480027706
 40
0.9999999999999999
 40
0.9999999999999999
 40
0.9999999999999999
 40
0.9999999999999999
 10
656.2309852618422
 20
-643.0748860531652
 30
0.0
 10
656.2252584510481
 20
-643.3566168659456
 30
0.0
 10
656.2085484447316
 20
-644.1786666647523
 30
0.0
 10
656.0199434727618
 20
-645.6397764323343
 30
0.0
 10
655.5953205899243
 20
-647.4498613729294
 30
0.0
 10
654.964412756819
 20
-649.2976494324358
 30
0.0
 10
654.1444720038936
 20
-651.1337253125008
 30
0.0
 10
653.1538201663935
 20
-652.9125403482047
 30
0.0
 10
652.0173095175212
 20
-654.5889118853028
 30
0.0
 10
650.7641049202726
 20
-656.1207329562818
 30
0.0
 10
649.4273743449469
 20
-657.4700148125931
 30
0.0
 10
648.043303564371
 20
-658.6043045135397
 30
0.0
 10
646.6501237695577
 20
-659.4981390391006
 30
0.0
 10
645.2871286101338
 20
-660.1337733507258
 30
0.0
 10
643.9914817061223
 20
-660.5051328090984
 30
0.0
 10
642.7995718698764
 20
-660.6081789246734
 30
0.0
 10
641.7446958202991
 20
-660.4814807218099
 30
0.0
 10
641.164356415006
 20
-660.2013181167816
 30
0.0
 10
640.8812171704176
 20
-660.0646308134103
 30
0.0
  0
SPLINE
  5
1B5
330
1F
100
AcDbEntity
  8
0
  6
Continuous
 62
     7
370
    25
100
AcDbSpline
210
0.0
220
0.0
230
1.0
 70
     8
 71
     3
 72
    13
 73
     9
 74
     0
 42
0.00000001
 43
0.00000001
 40
0.0
 40
0.0
 40
0.0
 40
0.0
 40
0.0884811926552644
 40
0.3131877944237164
 40
0.5300342937928805
 40
0.7392297751212752
 40
0.9449828409042104
 40
1.0
 40
1.0
 40
1.0
 40
1.0
 10
835.1114201022399
 20
-220.1852536136143
 30
0.0
 10
835.2332289420706
 20
-220.2561459964195
 30
0.0
 10
835.6643831878829
 20
-220.5070764862321
 30
0.0
 10
836.2392748105145
 20
-221.214314770859
 30
0.0
 10
836.818037751435
 20
-222.3021105264543
 30
0.0
 10
837.1848179773544
 20
-223.6223996710459
 30
0.0
 10
837.3124888103306
 20
-224.7526251878753
 30
0.0
 10
837.3199523710962
 20
-225.4262100847932
 30
0.0
 10
837.321527029055
 20
-225.5683226570989
 30
0.0
  0
SPLINE
  5
1B6
330
1F
100
AcDbEntity
  8
0
  6
Continuous
 62
     7
370
    25
100
AcDbSpline
210
0.0
220
0.0
230
1.0
 70
     8
 71
     3
 72
    23
 73
    19
 74
     0
 42
0.00000001
 43
0.00000001
 40
0.0
 40
0.0
 40
0.0
 40
0.0
 40
0.0335894183173931
 40
0.0980090686472841
 40
0.1626136377275904
 40
0.2273772989806097
 40
0.292270704417938
 40
0.3572397387519315
 40
0.4222220655242648
 40
0.487134873078759
 40
0.5519085973445764
 40
0.6164811775628599
 40
0.6808078259985144
 40
0.7448964574291781
 40
0.808882568985819
 40
0.8730223831884545
 40
0.9380494480027839
 40
0.9999999999999999
 40
0.9999999999999999
 40
0.9999999999999999
 40
0.9999999999999999
 10
837.321527029055
 20
-225.5683226570989
 30
0.0
 10
837.315800218261
 20
-225.8500534698794
 30
0.0
 10
837.2990902119445
 20
-226.6721032686863
 30
0.0
 10
837.1104852399747
 20
-228.1332130362682
 30
0.0
 10
836.685862357137
 20
-229.9432979768635
 30
0.0
 10
836.0549545240318
 20
-231.79108603637
 30
0.0
 10
835.2350137711062
 20
-233.6271619164349
 30
0.0
 10
834.2443619336061
 20
-235.4059769521389
 30
0.0
 10
833.1078512847339
 20
-237.0823484892367
 30
0.0
 10
831.8546466874851
 20
-238.6141695602159
 30
0.0
 10
830.5179161121596
 20
-239.963451416527
 30
0.0
 10
829.1338453315834
 20
-241.0977411174736
 30
0.0
 10
827.7406655367702
 20
-241.9915756430345
 30
0.0
 10
826.3776703773462
 20
-242.6272099546598
 30
0.0
 10
825.0820234733349
 20
-242.9985694130322
 30
0.0
 10
823.890113637089
 20
-243.101615528607
 30
0.0
 10
822.8352375875118
 20
-242.9749173257435
 30
0.0
 10
822.2548981822187
 20
-242.6947547207152
 30
0.0
 10
821.9717589376304
 20
-242.5580674173439
 30
0.0
  0
SPLINE
  5
1B7
330
1F
100
AcDbEntity
  8
0
  6
Continuous
 62
     7
370
    25
100
AcDbSpline
210
0.0
220
0.0
230
1.0
 70
     8
 71
     3
 72
    13
 73
     9
 74
     0
 42
0.00000001
 43
0.00000001
 40
0.0
 40
0.0
 40
0.0
 40
0.0
 40
0.0884811926552516
 40
0.3131877944236839
 40
0.5300342937928455
 40
0.739229775121234
 40
0.9449828409041552
 40
1.0
 40
1.0
 40
1.0
 40
1.0
 10
600.1114201022023
 20
-627.2171921977397
 30
0.0
 10
600.233228942033
 20
-627.2880845805447
 30
0.0
 10
600.6643831878454
 20
-627.5390150703572
 30
0.0
 10
601.2392748104769
 20
-628.2462533549841
 30
0.0
 10
601.8180377513974
 20
-629.3340491105795
 30
0.0
 10
602.1848179773168
 20
-630.654338255171
 30
0.0
 10
602.3124888102931
 20
-631.7845637720002
 30
0.0
 10
602.3199523710587
 20
-632.4581486689185
 30
0.0
 10
602.3215270290175
 20
-632.6002612412243
 30
0.0
  0
SPLINE
  5
1B8
330
1F
100
AcDbEntity
  8
0
  6
Continuous
 62
     7
370
    25
100
AcDbSpline
210
0.0
220
0.0
230
1.0
 70
     8
 71
     3
 72
    23
 73
    19
 74
     0
 42
0.00000001
 43
0.00000001
 40
0.0
 40
0.0
 40
0.0
 40
0.0
 40
0.033589418317393
 40
0.0980090686472627
 40
0.1626136377275711
 40
0.2273772989805811
 40
0.292270704417917
 40
0.3572397387519154
 40
0.4222220655242527
 40
0.4871348730787495
 40
0.5519085973445662
 40
0.6164811775628543
 40
0.6808078259985015
 40
0.7448964574291639
 40
0.8088825689857984
 40
0.8730223831884376
 40
0.9380494480027759
 40
1.0
 40
1.0
 40
1.0
 40
1.0
 10
602.3215270290175
 20
-632.6002612412243
 30
0.0
 10
602.3158002182234
 20
-632.8819920540047
 30
0.0
 10
602.299090211907
 20
-633.7040418528114
 30
0.0
 10
602.1104852399374
 20
-635.1651516203931
 30
0.0
 10
601.6858623570996
 20
-636.9752365609883
 30
0.0
 10
601.0549545239945
 20
-638.8230246204947
 30
0.0
 10
600.2350137710689
 20
-640.6591005005597
 30
0.0
 10
599.2443619335689
 20
-642.4379155362639
 30
0.0
 10
598.1078512846967
 20
-644.1142870733619
 30
0.0
 10
596.8546466874478
 20
-645.6461081443409
 30
0.0
 10
595.5179161121223
 20
-646.9953900006522
 30
0.0
 10
594.1338453315461
 20
-648.1296797015989
 30
0.0
 10
592.7406655367329
 20
-649.0235142271598
 30
0.0
 10
591.3776703773091
 20
-649.659148538785
 30
0.0
 10
590.0820234732977
 20
-650.0305079971575
 30
0.0
 10
588.8901136370516
 20
-650.1335541127324
 30
0.0
 10
587.8352375874744
 20
-650.0068559098689
 30
0.0
 10
587.2548981821811
 20
-649.7266933048405
 30
0.0
 10
586.9717589375928
 20
-649.5900060014693
 30
0.0
  0
SPLINE
  5
1B9
330
1F
100
AcDbEntity
  8
0
  6
Continuous
 62
     7
370
    25
100
AcDbSpline
210
0.0
220
0.0
230
1.0
 70
     8
 71
     3
 72
    13
 73
     9
 74
     0
 42
0.00000001
 43
0.00000001
 40
0.0
 40
0.0
 40
0.0
 40
0.0
 40
0.0884811926551936
 40
0.3131877944236187
 40
0.5300342937927827
 40
0.7392297751211493
 40
0.9449828409040473
 40
1.0
 40
1.0
 40
1.0
 40
1.0
 10
781.201961869415
 20
-209.7106288016733
 30
0.0
 10
781.3237707092455
 20
-209.7815211844784
 30
0.0
 10
781.754924955058
 20
-210.0324516742907
 30
0.0
 10
782.3298165776894
 20
-210.7396899589175
 30
0.0
 10
782.9085795186099
 20
-211.8274857145127
 30
0.0
 10
783.2753597445295
 20
-213.147774859104
 30
0.0
 10
783.4030305775059
 20
-214.2780003759335
 30
0.0
 10
783.4104941382715
 20
-214.9515852728519
 30
0.0
 10
783.4120687962304
 20
-215.093697845158
 30
0.0
  0
SPLINE
  5
1BA
330
1F
100
AcDbEntity
  8
0
  6
Continuous
 62
     7
370
    25
100
AcDbSpline
210
0.0
220
0.0
230
1.0
 70
     8
 71
     3
 72
    23
 73
    19
 74
     0
 42
0.00000001
 43
0.00000001
 40
0.0
 40
0.0
 40
0.0
 40
0.0
 40
0.0335894183173929
 40
0.0980090686472734
 40
0.1626136377275789
 40
0.2273772989805938
 40
0.292270704417922
 40
0.3572397387519189
 40
0.422222065524252
 40
0.4871348730787494
 40
0.5519085973445647
 40
0.6164811775628489
 40
0.6808078259985044
 40
0.7448964574291635
 40
0.8088825689857941
 40
0.8730223831884304
 40
0.9380494480027667
 40
1.0
 40
1.0
 40
1.0
 40
1.0
 10
783.4120687962304
 20
-215.093697845158
 30
0.0
 10
783.4063419854363
 20
-215.3754286579386
 30
0.0
 10
783.3896319791198
 20
-216.1974784567453
 30
0.0
 10
783.20102700715
 20
-217.6585882243272
 30
0.0
 10
782.7764041243124
 20
-219.4686731649223
 30
0.0
 10
782.1454962912072
 20
-221.3164612244288
 30
0.0
 10
781.3255555382816
 20
-223.1525371044937
 30
0.0
 10
780.3349037007816
 20
-224.9313521401976
 30
0.0
 10
779.1983930519094
 20
-226.6077236772957
 30
0.0
 10
777.9451884546605
 20
-228.1395447482748
 30
0.0
 10
776.6084578793351
 20
-229.4888266045859
 30
0.0
 10
775.2243870987589
 20
-230.6231163055327
 30
0.0
 10
773.8312073039456
 20
-231.5169508310936
 30
0.0
 10
772.4682121445219
 20
-232.1525851427188
 30
0.0
 10
771.1725652405105
 20
-232.5239446010913
 30
0.0
 10
769.9806554042647
 20
-232.6269907166663
 30
0.0
 10
768.9257793546872
 20
-232.5002925138028
 30
0.0
 10
768.345439949394
 20
-232.2201299087744
 30
0.0
 10
768.0623007048056
 20
-232.0834426054031
 30
0.0
  0
SPLINE
  5
1BB
330
1F
100
AcDbEntity
  8
0
  6
Continuous
 62
     7
370
    25
100
AcDbSpline
210
0.0
220
0.0
230
1.0
 70
     8
 71
     3
 72
    13
 73
     9
 74
     0
 42
0.00000001
 43
0.00000001
 40
0.0
 40
0.0
 40
0.0
 40
0.0
 40
0.088481192655272
 40
0.313187794423714
 40
0.5300342937928939
 40
0.7392297751212663
 40
0.9449828409041943
 40
1.0
 40
1.0
 40
1.0
 40
1.0
 10
564.0902717292282
 20
-585.759105937938
 30
0.0
 10
564.2120805690589
 20
-585.8299983207431
 30
0.0
 10
564.6432348148713
 20
-586.0809288105557
 30
0.0
 10
565.2181264375027
 20
-586.7881670951826
 30
0.0
 10
565.7968893784233
 20
-587.8759628507779
 30
0.0
 10
566.1636696043429
 20
-589.1962519953695
 30
0.0
 10
566.2913404373189
 20
-590.3264775121988
 30
0.0
 10
566.2988039980845
 20
-591.0000624091168
 30
0.0
 10
566.3003786560434
 20
-591.1421749814225
 30
0.0
  0
SPLINE
  5
1BC
330
1F
100
AcDbEntity
  8
0
  6
Continuous
 62
     7
370
    25
100
AcDbSpline
210
0.0
220
0.0
230
1.0
 70
     8
 71
     3
 72
    23
 73
    19
 74
     0
 42
0.00000001
 43
0.00000001
 40
0.0
 40
0.0
 40
0.0
 40
0.0
 40
0.0335894183173931
 40
0.0980090686472633
 40
0.1626136377275723
 40
0.2273772989805815
 40
0.2922707044179131
 40
0.3572397387519107
 40
0.4222220655242458
 40
0.4871348730787404
 40
0.5519085973445617
 40
0.6164811775628427
 40
0.6808078259984963
 40
0.7448964574291613
 40
0.8088825689857968
 40
0.873022383188431
 40
0.9380494480027681
 40
0.9999999999999999
 40
0.9999999999999999
 40
0.9999999999999999
 40
0.9999999999999999
 10
566.3003786560434
 20
-591.1421749814225
 30
0.0
 10
566.2946518452493
 20
-591.423905794203
 30
0.0
 10
566.2779418389327
 20
-592.2459555930099
 30
0.0
 10
566.0893368669631
 20
-593.7070653605915
 30
0.0
 10
565.6647139841256
 20
-595.5171503011866
 30
0.0
 10
565.0338061510203
 20
-597.3649383606931
 30
0.0
 10
564.2138653980949
 20
-599.2010142407579
 30
0.0
 10
563.2232135605949
 20
-600.979829276462
 30
0.0
 10
562.0867029117226
 20
-602.65620081356
 30
0.0
 10
560.8334983144738
 20
-604.1880218845391
 30
0.0
 10
559.4967677391483
 20
-605.5373037408505
 30
0.0
 10
558.1126969585721
 20
-606.6715934417971
 30
0.0
 10
556.7195171637588
 20
-607.5654279673579
 30
0.0
 10
555.3565220043349
 20
-608.2010622789834
 30
0.0
 10
554.0608751003235
 20
-608.5724217373559
 30
0.0
 10
552.8689652640777
 20
-608.6754678529308
 30
0.0
 10
551.8140892145003
 20
-608.5487696500674
 30
0.0
 10
551.2337498092071
 20
-608.268607045039
 30
0.0
 10
550.9506105646187
 20
-608.1319197416677
 30
0.0
  0
SPLINE
  5
1BD
330
1F
100
AcDbEntity
  8
0
  6
Continuous
 62
     7
370
    25
100
AcDbSpline
210
0.0
220
0.0
230
1.0
 70
     8
 71
     3
 72
    13
 73
     9
 74
     0
 42
0.00000001
 43
0.00000001
 40
0.0
 40
0.0
 40
0.0
 40
0.0
 40
0.0884811926552187
 40
0.313187794423653
 40
0.5300342937928139
 40
0.7392297751211864
 40
0.9449828409041032
 40
1.0
 40
1.0
 40
1.0
 40
1.0
 10
717.6114201022317
 20
-231.8141321125009
 30
0.0
 10
717.7332289420623
 20
-231.885024495306
 30
0.0
 10
718.1643831878747
 20
-232.1359549851185
 30
0.0
 10
718.7392748105061
 20
-232.8431932697451
 30
0.0
 10
719.3180377514267
 20
-233.9309890253405
 30
0.0
 10
719.6848179773463
 20
-235.2512781699319
 30
0.0
 10
719.8124888103225
 20
-236.3815036867614
 30
0.0
 10
719.8199523710881
 20
-237.0550885836796
 30
0.0
 10
719.821527029047
 20
-237.1972011559856
 30
0.0
  0
SPLINE
  5
1BE
330
1F
100
AcDbEntity
  8
0
  6
Continuous
 62
     7
370
    25
100
AcDbSpline
210
0.0
220
0.0
230
1.0
 70
     8
 71
     3
 72
    23
 73
    19
 74
     0
 42
0.00000001
 43
0.00000001
 40
0.0
 40
0.0
 40
0.0
 40
0.0
 40
0.033589418317393
 40
0.0980090686472692
 40
0.1626136377275768
 40
0.2273772989805908
 40
0.2922707044179185
 40
0.3572397387519179
 40
0.4222220655242486
 40
0.4871348730787431
 40
0.551908597344563
 40
0.6164811775628402
 40
0.6808078259984942
 40
0.7448964574291577
 40
0.8088825689857924
 40
0.8730223831884285
 40
0.9380494480027629
 40
1.0
 40
1.0
 40
1.0
 40
1.0
 10
719.821527029047
 20
-237.1972011559856
 30
0.0
 10
719.8158002182529
 20
-237.478931968766
 30
0.0
 10
719.7990902119365
 20
-238.3009817675728
 30
0.0
 10
719.6104852399667
 20
-239.7620915351547
 30
0.0
 10
719.1858623571292
 20
-241.5721764757498
 30
0.0
 10
718.554954524024
 20
-243.4199645352563
 30
0.0
 10
717.7350137710984
 20
-245.2560404153212
 30
0.0
 10
716.7443619335984
 20
-247.0348554510252
 30
0.0
 10
715.6078512847262
 20
-248.7112269881231
 30
0.0
 10
714.3546466874773
 20
-250.2430480591021
 30
0.0
 10
713.0179161121519
 20
-251.5923299154135
 30
0.0
 10
711.6338453315758
 20
-252.7266196163601
 30
0.0
 10
710.2406655367625
 20
-253.6204541419209
 30
0.0
 10
708.8776703773387
 20
-254.2560884535463
 30
0.0
 10
707.5820234733272
 20
-254.6274479119188
 30
0.0
 10
706.3901136370814
 20
-254.7304940274938
 30
0.0
 10
705.3352375875039
 20
-254.6037958246303
 30
0.0
 10
704.7548981822107
 20
-254.323633219602
 30
0.0
 10
704.4717589376223
 20
-254.1869459162307
 30
0.0
  0
SPLINE
  5
1BF
330
1F
100
AcDbEntity
  8
0
  6
Continuous
 62
     7
370
    25
100
AcDbSpline
210
0.0
220
0.0
230
1.0
 70
     8
 71
     3
 72
    13
 73
     9
 74
     0
 42
0.00000001
 43
0.00000001
 40
0.0
 40
0.0
 40
0.0
 40
0.0
 40
0.0884811926551909
 40
0.3131877944236177
 40
0.5300342937927973
 40
0.7392297751211442
 40
0.9449828409040626
 40
1.0
 40
1.0
 40
1.0
 40
1.0
 10
551.4413265233665
 20
-519.6291760448422
 30
0.0
 10
551.563135363197
 20
-519.7000684276472
 30
0.0
 10
551.9942896090095
 20
-519.9509989174597
 30
0.0
 10
552.5691812316409
 20
-520.6582372020865
 30
0.0
 10
553.1479441725614
 20
-521.7460329576817
 30
0.0
 10
553.5147243984811
 20
-523.066322102273
 30
0.0
 10
553.6423952314573
 20
-524.1965476191025
 30
0.0
 10
553.649858792223
 20
-524.8701325160209
 30
0.0
 10
553.6514334501819
 20
-525.012245088327
 30
0.0
  0
SPLINE
  5
1C0
330
1F
100
AcDbEntity
  8
0
  6
Continuous
 62
     7
370
    25
100
AcDbSpline
210
0.0
220
0.0
230
1.0
 70
     8
 71
     3
 72
    23
 73
    19
 74
     0
 42
0.00000001
 43
0.00000001
 40
0.0
 40
0.0
 40
0.0
 40
0.0
 40
0.0335894183173929
 40
0.0980090686472637
 40
0.162613637727573
 40
0.227377298980583
 40
0.2922707044179138
 40
0.3572397387519057
 40
0.4222220655242416
 40
0.4871348730787358
 40
0.5519085973445526
 40
0.6164811775628357
 40
0.6808078259984893
 40
0.7448964574291516
 40
0.8088825689857884
 40
0.873022383188425
 40
0.9380494480027629
 40
0.9999999999999999
 40
0.9999999999999999
 40
0.9999999999999999
 40
0.9999999999999999
 10
553.6514334501819
 20
-525.012245088327
 30
0.0
 10
553.6457066393878
 20
-525.2939759011075
 30
0.0
 10
553.6289966330712
 20
-526.1160256999142
 30
0.0
 10
553.4403916611016
 20
-527.5771354674959
 30
0.0
 10
553.0157687782639
 20
-529.3872204080909
 30
0.0
 10
552.3848609451588
 20
-531.2350084675974
 30
0.0
 10
551.5649201922333
 20
-533.0710843476622
 30
0.0
 10
550.5742683547332
 20
-534.8498993833664
 30
0.0
 10
549.4377577058611
 20
-536.5262709204642
 30
0.0
 10
548.1845531086124
 20
-538.0580919914435
 30
0.0
 10
546.847822533287
 20
-539.4073738477547
 30
0.0
 10
545.4637517527108
 20
-540.5416635487013
 30
0.0
 10
544.0705719578975
 20
-541.4354980742622
 30
0.0
 10
542.7075767984736
 20
-542.0711323858877
 30
0.0
 10
541.4119298944622
 20
-542.4424918442602
 30
0.0
 10
540.2200200582163
 20
-542.5455379598352
 30
0.0
 10
539.1651440086388
 20
-542.4188397569717
 30
0.0
 10
538.5848046033456
 20
-542.1386771519434
 30
0.0
 10
538.3016653587571
 20
-542.0019898485721
 30
0.0
  0
SPLINE
  5
1C1
330
1F
100
AcDbEntity
  8
0
  6
Continuous
 62
     7
370
    25
100
AcDbSpline
210
0.0
220
0.0
230
1.0
 70
     8
 71
     3
 72
    13
 73
     9
 74
     0
 42
0.00000001
 43
0.00000001
 40
0.0
 40
0.0
 40
0.0
 40
0.0
 40
0.0884811926552488
 40
0.3131877944236618
 40
0.5300342937928312
 40
0.7392297751212071
 40
0.9449828409041247
 40
1.0
 40
1.0
 40
1.0
 40
1.0
 10
654.0208783350466
 20
-283.13070553578
 30
0.0
 10
654.1426871748772
 20
-283.2015979185852
 30
0.0
 10
654.5738414206896
 20
-283.4525284083977
 30
0.0
 10
655.1487330433213
 20
-284.1597666930245
 30
0.0
 10
655.7274959842416
 20
-285.2475624486197
 30
0.0
 10
656.0942762101613
 20
-286.5678515932112
 30
0.0
 10
656.2219470431374
 20
-287.6980771100405
 30
0.0
 10
656.2294106039029
 20
-288.3716620069588
 30
0.0
 10
656.230985261862
 20
-288.5137745792647
 30
0.0
  0
SPLINE
  5
1C2
330
1F
100
AcDbEntity
  8
0
  6
Continuous
 62
     7
370
    25
100
AcDbSpline
210
0.0
220
0.0
230
1.0
 70
     8
 71
     3
 72
    23
 73
    19
 74
     0
 42
0.00000001
 43
0.00000001
 40
0.0
 40
0.0
 40
0.0
 40
0.0
 40
0.0335894183173932
 40
0.0980090686472633
 40
0.1626136377275718
 40
0.2273772989805848
 40
0.292270704417909
 40
0.3572397387519071
 40
0.4222220655242488
 40
0.487134873078742
 40
0.5519085973445593
 40
0.6164811775628399
 40
0.6808078259984915
 40
0.7448964574291584
 40
0.8088825689857958
 40
0.8730223831884342
 40
0.9380494480027735
 40
1.0
 40
1.0
 40
1.0
 40
1.0
 10
656.230985261862
 20
-288.5137745792647
 30
0.0
 10
656.2252584510678
 20
-288.7955053920452
 30
0.0
 10
656.2085484447513
 20
-289.6175551908519
 30
0.0
 10
656.0199434727817
 20
-291.0786649584336
 30
0.0
 10
655.5953205899441
 20
-292.8887498990287
 30
0.0
 10
654.9644127568389
 20
-294.7365379585352
 30
0.0
 10
654.1444720039134
 20
-296.5726138386
 30
0.0
 10
653.1538201664134
 20
-298.3514288743041
 30
0.0
 10
652.0173095175411
 20
-300.027800411402
 30
0.0
 10
650.7641049202923
 20
-301.5596214823813
 30
0.0
 10
649.4273743449669
 20
-302.9089033386925
 30
0.0
 10
648.0433035643907
 20
-304.0431930396391
 30
0.0
 10
646.6501237695776
 20
-304.9370275652001
 30
0.0
 10
645.2871286101536
 20
-305.5726618768254
 30
0.0
 10
643.9914817061422
 20
-305.9440213351979
 30
0.0
 10
642.7995718698962
 20
-306.047067450773
 30
0.0
 10
641.7446958203188
 20
-305.9203692479094
 30
0.0
 10
641.1643564150256
 20
-305.6402066428811
 30
0.0
 10
640.8812171704373
 20
-305.5035193395098
 30
0.0
  0
SPLINE
  5
1C3
330
1F
100
AcDbEntity
  8
0
  6
Continuous
 62
     7
370
    25
100
AcDbSpline
210
0.0
220
0.0
230
1.0
 70
     8
 71
     3
 72
    13
 73
     9
 74
     0
 42
0.00000001
 43
0.00000001
 40
0.0
 40
0.0
 40
0.0
 40
0.0
 40
0.0884811926552487
 40
0.3131877944236912
 40
0.5300342937928695
 40
0.7392297751212361
 40
0.944982840904158
 40
1.0
 40
1.0
 40
1.0
 40
1.0
 10
564.0902717292363
 20
-438.8950848753694
 30
0.0
 10
564.2120805690669
 20
-438.9659772581745
 30
0.0
 10
564.6432348148795
 20
-439.2169077479871
 30
0.0
 10
565.2181264375108
 20
-439.9241460326139
 30
0.0
 10
565.7968893784315
 20
-441.0119417882092
 30
0.0
 10
566.1636696043508
 20
-442.3322309328008
 30
0.0
 10
566.2913404373272
 20
-443.46245644963
 30
0.0
 10
566.2988039980926
 20
-444.1360413465482
 30
0.0
 10
566.3003786560515
 20
-444.2781539188541
 30
0.0
  0
SPLINE
  5
1C4
330
1F
100
AcDbEntity
  8
0
  6
Continuous
 62
     7
370
    25
100
AcDbSpline
210
0.0
220
0.0
230
1.0
 70
     8
 71
     3
 72
    23
 73
    19
 74
     0
 42
0.00000001
 43
0.00000001
 40
0.0
 40
0.0
 40
0.0
 40
0.0
 40
0.0335894183173931
 40
0.0980090686472633
 40
0.1626136377275723
 40
0.2273772989805816
 40
0.2922707044179132
 40
0.3572397387519108
 40
0.4222220655242459
 40
0.4871348730787405
 40
0.5519085973445618
 40
0.6164811775628429
 40
0.6808078259984965
 40
0.7448964574291614
 40
0.8088825689857977
 40
0.8730223831884342
 40
0.9380494480027683
 40
0.9999999999999999
 40
0.9999999999999999
 40
0.9999999999999999
 40
0.9999999999999999
 10
566.3003786560515
 20
-444.2781539188541
 30
0.0
 10
566.2946518452575
 20
-444.5598847316345
 30
0.0
 10
566.2779418389409
 20
-445.3819345304413
 30
0.0
 10
566.0893368669714
 20
-446.8430442980229
 30
0.0
 10
565.6647139841338
 20
-448.6531292386181
 30
0.0
 10
565.0338061510284
 20
-450.5009172981245
 30
0.0
 10
564.213865398103
 20
-452.3369931781893
 30
0.0
 10
563.223213560603
 20
-454.1158082138934
 30
0.0
 10
562.0867029117308
 20
-455.7921797509914
 30
0.0
 10
560.833498314482
 20
-457.3240008219707
 30
0.0
 10
559.4967677391563
 20
-458.6732826782819
 30
0.0
 10
558.1126969585804
 20
-459.8075723792285
 30
0.0
 10
556.7195171637671
 20
-460.7014069047895
 30
0.0
 10
555.356522004343
 20
-461.3370412164148
 30
0.0
 10
554.0608751003317
 20
-461.7084006747872
 30
0.0
 10
552.8689652640859
 20
-461.8114467903623
 30
0.0
 10
551.8140892145085
 20
-461.6847485874987
 30
0.0
 10
551.2337498092153
 20
-461.4045859824704
 30
0.0
 10
550.9506105646269
 20
-461.2678986790991
 30
0.0
  0
SPLINE
  5
1C5
330
1F
100
AcDbEntity
  8
0
  6
Continuous
 62
     7
370
    25
100
AcDbSpline
210
0.0
220
0.0
230
1.0
 70
     8
 71
     3
 72
    13
 73
     9
 74
     0
 42
0.00000001
 43
0.00000001
 40
0.0
 40
0.0
 40
0.0
 40
0.0
 40
0.0884811926551881
 40
0.3131877944236081
 40
0.5300342937927759
 40
0.7392297751211683
 40
0.944982840904044
 40
1.0
 40
1.0
 40
1.0
 40
1.0
 10
600.1114201022173
 20
-355.8478659537126
 30
0.0
 10
600.2332289420477
 20
-355.9187583365178
 30
0.0
 10
600.6643831878603
 20
-356.1696888263301
 30
0.0
 10
601.2392748104917
 20
-356.8769271109567
 30
0.0
 10
601.8180377514121
 20
-357.964722866552
 30
0.0
 10
602.1848179773319
 20
-359.2850120111434
 30
0.0
 10
602.3124888103081
 20
-360.4152375279729
 30
0.0
 10
602.3199523710737
 20
-361.0888224248912
 30
0.0
 10
602.3215270290327
 20
-361.2309349971974
 30
0.0
  0
SPLINE
  5
1C6
330
1F
100
AcDbEntity
  8
0
  6
Continuous
 62
     7
370
    25
100
AcDbSpline
210
0.0
220
0.0
230
1.0
 70
     8
 71
     3
 72
    23
 73
    19
 74
     0
 42
0.00000001
 43
0.00000001
 40
0.0
 40
0.0
 40
0.0
 40
0.0
 40
0.0335894183173932
 40
0.0980090686472642
 40
0.1626136377275786
 40
0.2273772989805889
 40
0.2922707044179181
 40
0.3572397387519156
 40
0.4222220655242546
 40
0.4871348730787518
 40
0.5519085973445671
 40
0.6164811775628538
 40
0.680807825998505
 40
0.7448964574291714
 40
0.8088825689858037
 40
0.8730223831884425
 40
0.938049448002778
 40
0.9999999999999999
 40
0.9999999999999999
 40
0.9999999999999999
 40
0.9999999999999999
 10
602.3215270290327
 20
-361.2309349971974
 30
0.0
 10
602.3158002182385
 20
-361.5126658099778
 30
0.0
 10
602.2990902119219
 20
-362.3347156087846
 30
0.0
 10
602.1104852399524
 20
-363.7958253763663
 30
0.0
 10
601.6858623571147
 20
-365.6059103169615
 30
0.0
 10
601.0549545240096
 20
-367.453698376468
 30
0.0
 10
600.235013771084
 20
-369.2897742565328
 30
0.0
 10
599.2443619335841
 20
-371.0685892922369
 30
0.0
 10
598.1078512847116
 20
-372.7449608293348
 30
0.0
 10
596.854646687463
 20
-374.2767819003142
 30
0.0
 10
595.5179161121373
 20
-375.6260637566253
 30
0.0
 10
594.1338453315612
 20
-376.7603534575719
 30
0.0
 10
592.740665536748
 20
-377.6541879831328
 30
0.0
 10
591.3776703773242
 20
-378.2898222947581
 30
0.0
 10
590.0820234733127
 20
-378.6611817531306
 30
0.0
 10
588.8901136370669
 20
-378.7642278687056
 30
0.0
 10
587.8352375874895
 20
-378.637529665842
 30
0.0
 10
587.2548981821964
 20
-378.3573670608137
 30
0.0
 10
586.971758937608
 20
-378.2206797574424
 30
0.0
  0
LWPOLYLINE
  5
1C7
330
1F
100
AcDbEntity
  8
0
  6
Continuous
 62
     7
370
    25
100
AcDbPolyline
 90
      173
 70
   128
 43
0.0
 10
897.5982223257
 20
-326.2168698595
 10
897.4732092537
 20
-318.3862819446
 10
897.0983368431
 20
-310.7104794293
 10
896.4741052873
 20
-303.199704162
 10
895.6013475005
 20
-295.8639777944
 10
894.4812280064
 20
-288.7130884104
 10
893.1152413839
 20
-281.7565774647
 10
891.5052102736
 20
-275.0037270528
 10
889.6532829451
 20
-268.4635475249
 10
887.5619304311
 20
-262.1447654638
 10
885.2339432301
 20
-256.0558120411
 10
882.6724275831
 20
-250.2048117671
 10
879.8808013286
 20
-244.5995716507
 10
876.8627893428
 20
-239.2475707819
 10
873.6224185687
 20
-234.1559503529
 10
870.1640126438
 20
-229.3315041296
 10
866.4921861303
 20
-224.7806693862
 10
862.6118383583
 20
-220.5095183163
 10
858.5281468885
 20
-216.5237499308
 10
854.2465606037
 20
-212.8286824533
 10
849.7727924384
 20
-209.4292462246
 10
845.1128117562
 20
-206.3299771233
 10
840.2728363843
 20
-203.5350105144
 10
835.2593243178
 20
-201.048075731
 10
830.0789651021
 20
-198.8724910981
 10
824.7386709075
 20
-197.0111595056
 10
819.2455673057
 20
-195.4665645341
 10
813.606983763
 20
-194.2407671419
 10
807.8304438597
 20
-193.3354029143
 10
801.9236552518
 20
-192.7516798818
 10
795.8944993866
 20
-192.490376908
 10
789.7510209865
 20
-192.5518426502
 10
783.5014173146
 20
-192.9359950945
 10
777.1540272376
 20
-193.6423216651
 10
770.7173200987
 20
-194.6698799081
 10
764.1998844172
 20
-196.0172987491
 10
757.6104164288
 20
-197.682780323
 10
750.9577084821
 20
-199.664102372
 10
744.2506373071
 20
-201.9586212119
 10
737.4981521706
 20
-204.5632752586
 10
730.7092629355
 20
-207.4745891137
 10
723.893028039
 20
-210.6886782016
 10
717.0585424054
 20
-214.2012539529
 10
710.2149253112
 20
-218.0076295263
 10
703.3713082171
 20
-222.1027260623
 10
696.5368225835
 20
-226.4810794604
 10
689.7205876869
 20
-231.1368476693
 10
682.9316984519
 20
-236.0638184824
 10
676.1792133154
 20
-241.2554178265
 10
669.4721421403
 20
-246.7047185335
 10
662.8194341937
 20
-252.4044495838
 10
656.2299662053
 20
-258.3470058077
 10
649.7125305238
 20
-264.5244580331
 10
643.2758233849
 20
-270.9285636653
 10
636.9284333079
 20
-277.5507776853
 10
630.678829636
 20
-284.3822640513
 10
624.5353512359
 20
-291.4139074888
 10
618.5061953707
 20
-298.6363256531
 10
612.5994067628
 20
-306.0398816481
 10
606.8228668595
 20
-313.6146968848
 10
601.1842833168
 20
-321.3506642626
 10
595.691179715
 20
-329.237461655
 10
590.3508855204
 20
-337.2645656826
 10
585.1705263047
 20
-345.4212657542
 10
580.1570142382
 20
-353.6966783584
 10
575.3170388663
 20
-362.0797615852
 10
570.6570581841
 20
-370.5593298593
 10
566.1832900188
 20
-379.1240688651
 10
561.901703734
 20
-387.7625506435
 10
557.8180122642
 20
-396.46324884
 10
553.9376644922
 20
-405.2145540846
 10
550.2658379787
 20
-414.0047894824
 10
546.8074320538
 20
-422.8222261934
 10
543.5670612797
 20
-431.6550990833
 10
540.5490492939
 20
-440.4916224208
 10
537.7574230394
 20
-449.3200056041
 10
535.1959073924
 20
-458.1284688928
 10
532.8679201914
 20
-466.9052591255
 10
530.7765676774
 20
-475.6386654025
 10
528.9246403489
 20
-484.3170347113
 10
527.3146092386
 20
-492.9287874754
 10
525.9486226161
 20
-501.462433005
 10
524.828503122
 20
-509.9065848292
 10
523.9557453352
 20
-518.2499758885
 10
523.3315137794
 20
-526.4814735692
 10
522.9566413688
 20
-534.590094557
 10
522.8316282968
 20
-542.5650194925
 10
522.9566413688
 20
-550.3956074074
 10
523.3315137794
 20
-558.0714099227
 10
523.9557453352
 20
-565.58218519
 10
524.828503122
 20
-572.9179115575
 10
525.9486226161
 20
-580.0688009416
 10
527.3146092386
 20
-587.0253118872
 10
528.9246403489
 20
-593.7781622992
 10
530.7765676774
 20
-600.3183418271
 10
532.8679201914
 20
-606.6371238882
 10
535.1959073924
 20
-612.7260773109
 10
537.7574230394
 20
-618.5770775849
 10
540.5490492939
 20
-624.1823177013
 10
543.5670612797
 20
-629.5343185701
 10
546.8074320538
 20
-634.625938999
 10
550.2658379787
 20
-639.4503852224
 10
553.9376644922
 20
-644.0012199658
 10
557.8180122642
 20
-648.2723710357
 10
561.901703734
 20
-652.2581394212
 10
566.1832900188
 20
-655.9532068986
 10
570.6570581841
 20
-659.3526431274
 10
575.3170388663
 20
-662.4519122287
 10
580.1570142382
 20
-665.2468788375
 10
585.1705263047
 20
-667.733813621
 10
590.3508855204
 20
-669.9093982538
 10
595.691179715
 20
-671.7707298464
 10
601.1842833168
 20
-673.3153248178
 10
606.8228668595
 20
-674.5411222101
 10
612.5994067628
 20
-675.4464864377
 10
618.5061953707
 20
-676.0302094701
 10
624.5353512359
 20
-676.291512444
 10
630.678829636
 20
-676.2300467018
 10
636.9284333079
 20
-675.8458942575
 10
643.2758233849
 20
-675.1395676869
 10
649.7125305238
 20
-674.1120094439
 10
656.2299662053
 20
-672.7645906028
 10
662.8194341937
 20
-671.099109029
 10
669.4721421404
 20
-669.1177869799
 10
676.1792133154
 20
-666.8232681401
 10
682.9316984519
 20
-664.2186140934
 10
689.720587687
 20
-661.3073002383
 10
696.5368225835
 20
-658.0932111503
 10
703.3713082171
 20
-654.580635399
 10
710.2149253113
 20
-650.7742598257
 10
717.0585424054
 20
-646.6791632897
 10
723.893028039
 20
-642.3008098916
 10
730.7092629355
 20
-637.6450416826
 10
737.4981521706
 20
-632.7180708695
 10
744.2506373071
 20
-627.5264715255
 10
750.9577084822
 20
-622.0771708185
 10
757.6104164288
 20
-616.3774397681
 10
764.1998844172
 20
-610.4348835442
 10
770.7173200987
 20
-604.2574313188
 10
777.1540272376
 20
-597.8533256867
 10
783.5014173146
 20
-591.2311116667
 10
789.7510209865
 20
-584.3996253007
 10
795.8944993866
 20
-577.3679818631
 10
801.9236552518
 20
-570.1455636988
 10
807.8304438597
 20
-562.7420077039
 10
813.606983763
 20
-555.1671924672
 10
819.2455673057
 20
-547.4312250894
 10
824.7386709075
 20
-539.544427697
 10
830.0789651021
 20
-531.5173236694
 10
835.2593243178
 20
-523.3606235978
 10
840.2728363843
 20
-515.0852109935
 10
845.1128117562
 20
-506.7021277667
 10
849.7727924384
 20
-498.2225594926
 10
854.2465606037
 20
-489.6578204868
 10
858.5281468885
 20
-481.0193387085
 10
862.6118383583
 20
-472.318640512
 10
866.4921861303
 20
-463.5673352673
 10
870.1640126438
 20
-454.7770998696
 10
873.6224185687
 20
-445.9596631585
 10
876.8627893428
 20
-437.1267902687
 10
879.8808013286
 20
-428.2902669312
 10
882.6724275831
 20
-419.4618837478
 10
885.2339432301
 20
-410.6534204592
 10
887.5619304311
 20
-401.8766302264
 10
889.6532829451
 20
-393.1432239495
 10
891.5052102736
 20
-384.4648546407
 10
893.1152413839
 20
-375.8531018766
 10
894.4812280064
 20
-367.3194563469
 10
895.6013475005
 20
-358.8753045228
 10
896.4741052873
 20
-350.5319134634
 10
897.0983368431
 20
-342.3004157828
 10
897.4732092537
 20
-334.191794795
 10
897.5982223257
 20
-326.2168698595
  0
ARC
  5
1C8
330
1F
100
AcDbEntity
  8
0
  6
Continuous
 62
     7
370
    25
100
AcDbCircle
 10
624.1487162466
 20
-585.1065705748
 30
0.0
 40
92.37964131842072
100
AcDbArc
 50
213.925638778
 51
265.9738462856
  0
ARC
  5
1C9
330
1F
100
AcDbEntity
  8
0
  6
Continuous
 62
     7
370
    25
100
AcDbCircle
 10
797.7057540278
 20
-284.444686807
 30
0.0
 40
92.33335916467077
100
AcDbArc
 50
34.5264365586
 51
86.0508050801
  0
ARC
  5
1CA
330
1F
100
AcDbEntity
  8
0
  6
Continuous
 62
     7
370
    25
100
AcDbCircle
 10
824.5742401547
 20
-302.1126617371
 30
0.0
 40
94.26724700018447
100
AcDbArc
 50
34.1347083956
 51
59.657172236
  0
ARC
  5
1CB
330
1F
100
AcDbEntity
  8
0
  6
Continuous
 62
     7
370
    25
100
AcDbCircle
 10
652.907910131
 20
-599.3877778045
 30
0.0
 40
94.45549973270927
100
AcDbArc
 50
240.3753897428
 51
265.7761561604
  0
LWPOLYLINE
  5
1CC
330
1F
100
AcDbEntity
  8
0
  6
Continuous
 62
     7
370
    25
100
AcDbPolyline
 90
       40
 70
   128
 43
0.0
 10
602.6144202478
 20
-360.8227309413
 10
602.4862243884
 20
-362.7304898408
 10
602.1049570155
 20
-364.7368505757
 10
601.4804927538
 20
-366.7898494568
 10
600.6290048997
 20
-368.8363148916
 10
599.5725465413
 20
-370.8232445002
 10
598.3384793952
 20
-372.6991778495
 10
596.9587651522
 20
-374.415529251
 10
595.4691376866
 20
-375.9278461051
 10
593.9081775671
 20
-377.1969601996
 10
592.316312841
 20
-378.1900021461
 10
590.7347719685
 20
-378.8812526798
 10
589.2045160275
 20
-379.252808775
 10
587.7651778429
 20
-379.2950473239
 10
586.4540355178
 20
-379.0068743704
 10
585.3050469497
 20
-378.3957534426
 10
584.3479703389
 20
-377.4775122514
 10
583.6075934669
 20
-376.2759327615
 10
583.1030917059
 20
-374.8221352504
 10
582.8475313863
 20
-373.1537723101
 10
582.8475313863
 20
-371.3140536643
 10
583.1030917059
 20
-369.3506270596
 10
583.6075934669
 20
-367.3143442138
 10
584.3479703389
 20
-365.2579437829
 10
585.3050469497
 20
-363.2346854578
 10
586.4540355178
 20
-361.2969705666
 10
587.7651778429
 20
-359.4949849069
 10
589.2045160275
 20
-357.875398961
 10
590.7347719685
 20
-356.4801591539
 10
592.316312841
 20
-355.3454014639
 10
593.9081775671
 20
-354.500515519
 10
595.4691376866
 20
-353.9673834215
 10
596.9587651522
 20
-353.7598130125
 10
598.3384793952
 20
-353.8831802568
 10
599.5725465413
 20
-354.3342900074
 10
600.6290048997
 20
-355.1014587587
 10
601.4804927538
 20
-356.1648172432
 10
602.1049570155
 20
-357.4968250345
 10
602.4862243884
 20
-359.0629838306
 10
602.6144202478
 20
-360.8227309413
  0
LWPOLYLINE
  5
1CD
330
1F
100
AcDbEntity
  8
0
  6
Continuous
 62
     7
370
    25
100
AcDbPolyline
 90
       40
 70
   128
 43
0.0
 10
553.944326669
 20
-524.6040410324
 10
553.8161308095
 20
-526.5117999319
 10
553.4348634366
 20
-528.5181606668
 10
552.8103991749
 20
-530.571159548
 10
551.9589113208
 20
-532.6176249828
 10
550.9024529624
 20
-534.6045545914
 10
549.6683858163
 20
-536.4804879406
 10
548.2886715734
 20
-538.1968393422
 10
546.7990441077
 20
-539.7091561963
 10
545.2380839882
 20
-540.9782702908
 10
543.6462192622
 20
-541.9713122372
 10
542.0646783897
 20
-542.6625627709
 10
540.5344224486
 20
-543.0341188661
 10
539.0950842641
 20
-543.076357415
 10
537.783941939
 20
-542.7881844615
 10
536.6349533709
 20
-542.1770635337
 10
535.6778767601
 20
-541.2588223425
 10
534.9374998881
 20
-540.0572428526
 10
534.432998127
 20
-538.6034453416
 10
534.1774378075
 20
-536.9350824012
 10
534.1774378075
 20
-535.0953637554
 10
534.432998127
 20
-533.1319371508
 10
534.9374998881
 20
-531.0956543049
 10
535.6778767601
 20
-529.039253874
 10
536.6349533709
 20
-527.015995549
 10
537.783941939
 20
-525.0782806577
 10
539.0950842641
 20
-523.2762949981
 10
540.5344224486
 20
-521.6567090521
 10
542.0646783897
 20
-520.261469245
 10
543.6462192622
 20
-519.126711555
 10
545.2380839882
 20
-518.2818256101
 10
546.7990441077
 20
-517.7486935126
 10
548.2886715734
 20
-517.5411231037
 10
549.6683858163
 20
-517.6644903479
 10
550.9024529624
 20
-518.1156000985
 10
551.9589113208
 20
-518.8827688499
 10
552.8103991749
 20
-519.9461273343
 10
553.4348634366
 20
-521.2781351256
 10
553.8161308095
 20
-522.8442939217
 10
553.944326669
 20
-524.6040410324
  0
LWPOLYLINE
  5
1CE
330
1F
100
AcDbEntity
  8
0
  6
Continuous
 62
     7
370
    25
100
AcDbPolyline
 90
       40
 70
   128
 43
0.0
 10
602.6144202478
 20
-632.1920571853
 10
602.4862243884
 20
-634.0998160848
 10
602.1049570155
 20
-636.1061768197
 10
601.4804927538
 20
-638.1591757009
 10
600.6290048996
 20
-640.2056411357
 10
599.5725465413
 20
-642.1925707443
 10
598.3384793952
 20
-644.0685040935
 10
596.9587651522
 20
-645.7848554951
 10
595.4691376865
 20
-647.2971723492
 10
593.9081775671
 20
-648.5662864437
 10
592.316312841
 20
-649.5593283901
 10
590.7347719685
 20
-650.2505789238
 10
589.2045160274
 20
-650.622135019
 10
587.7651778429
 20
-650.6643735679
 10
586.4540355178
 20
-650.3762006144
 10
585.3050469497
 20
-649.7650796866
 10
584.3479703389
 20
-648.8468384954
 10
583.6075934669
 20
-647.6452590055
 10
583.1030917059
 20
-646.1914614945
 10
582.8475313863
 20
-644.5230985541
 10
582.8475313863
 20
-642.6833799083
 10
583.1030917059
 20
-640.7199533037
 10
583.6075934669
 20
-638.6836704578
 10
584.3479703389
 20
-636.6272700269
 10
585.3050469497
 20
-634.6040117019
 10
586.4540355178
 20
-632.6662968106
 10
587.7651778429
 20
-630.864311151
 10
589.2045160274
 20
-629.244725205
 10
590.7347719685
 20
-627.8494853979
 10
592.316312841
 20
-626.7147277079
 10
593.9081775671
 20
-625.869841763
 10
595.4691376865
 20
-625.3367096655
 10
596.9587651522
 20
-625.1291392566
 10
598.3384793952
 20
-625.2525065008
 10
599.5725465413
 20
-625.7036162514
 10
600.6290048996
 20
-626.4707850028
 10
601.4804927538
 20
-627.5341434872
 10
602.1049570155
 20
-628.8661512785
 10
602.4862243884
 20
-630.4323100746
 10
602.6144202478
 20
-632.1920571853
  0
LWPOLYLINE
  5
1CF
330
1F
100
AcDbEntity
  8
0
  6
Continuous
 62
     7
370
    25
100
AcDbPolyline
 90
       40
 70
   128
 43
0.0
 10
720.1144202478
 20
-620.5631786864
 10
719.9862243884
 20
-622.4709375859
 10
719.6049570155
 20
-624.4772983208
 10
718.9804927538
 20
-626.530297202
 10
718.1290048997
 20
-628.5767626368
 10
717.0725465413
 20
-630.5636922454
 10
715.8384793952
 20
-632.4396255946
 10
714.4587651522
 20
-634.1559769962
 10
712.9691376865
 20
-635.6682938503
 10
711.4081775671
 20
-636.9374079448
 10
709.816312841
 20
-637.9304498913
 10
708.2347719685
 20
-638.6217004249
 10
706.7045160275
 20
-638.9932565201
 10
705.2651778429
 20
-639.035495069
 10
703.9540355178
 20
-638.7473221155
 10
702.8050469497
 20
-638.1362011877
 10
701.8479703389
 20
-637.2179599966
 10
701.1075934669
 20
-636.0163805066
 10
700.6030917059
 20
-634.5625829956
 10
700.3475313863
 20
-632.8942200552
 10
700.3475313863
 20
-631.0545014094
 10
700.6030917059
 20
-629.0910748048
 10
701.1075934669
 20
-627.0547919589
 10
701.8479703389
 20
-624.998391528
 10
702.8050469497
 20
-622.975133203
 10
703.9540355178
 20
-621.0374183117
 10
705.2651778429
 20
-619.2354326521
 10
706.7045160275
 20
-617.6158467061
 10
708.2347719685
 20
-616.220606899
 10
709.816312841
 20
-615.085849209
 10
711.4081775671
 20
-614.2409632641
 10
712.9691376865
 20
-613.7078311666
 10
714.4587651522
 20
-613.5002607577
 10
715.8384793952
 20
-613.6236280019
 10
717.0725465413
 20
-614.0747377525
 10
718.1290048997
 20
-614.8419065039
 10
718.9804927538
 20
-615.9052649883
 10
719.6049570155
 20
-617.2372727796
 10
719.9862243884
 20
-618.8034315757
 10
720.1144202478
 20
-620.5631786864
  0
LWPOLYLINE
  5
1D0
330
1F
100
AcDbEntity
  8
0
  6
Continuous
 62
     7
370
    25
100
AcDbPolyline
 90
       40
 70
   128
 43
0.0
 10
837.6144202479
 20
-496.5294448452
 10
837.4862243884
 20
-498.4372037447
 10
837.1049570155
 20
-500.4435644796
 10
836.4804927538
 20
-502.4965633608
 10
835.6290048997
 20
-504.5430287956
 10
834.5725465413
 20
-506.5299584042
 10
833.3384793952
 20
-508.4058917534
 10
831.9587651522
 20
-510.122243155
 10
830.4691376866
 20
-511.6345600091
 10
828.9081775671
 20
-512.9036741036
 10
827.316312841
 20
-513.89671605
 10
825.7347719685
 20
-514.5879665837
 10
824.2045160275
 20
-514.9595226789
 10
822.7651778429
 20
-515.0017612278
 10
821.4540355179
 20
-514.7135882743
 10
820.3050469497
 20
-514.1024673465
 10
819.3479703389
 20
-513.1842261553
 10
818.607593467
 20
-511.9826466654
 10
818.1030917059
 20
-510.5288491544
 10
817.8475313863
 20
-508.860486214
 10
817.8475313863
 20
-507.0207675682
 10
818.1030917059
 20
-505.0573409636
 10
818.607593467
 20
-503.0210581177
 10
819.3479703389
 20
-500.9646576868
 10
820.3050469497
 20
-498.9413993618
 10
821.4540355179
 20
-497.0036844705
 10
822.7651778429
 20
-495.2016988109
 10
824.2045160275
 20
-493.5821128649
 10
825.7347719685
 20
-492.1868730578
 10
827.316312841
 20
-491.0521153678
 10
828.9081775671
 20
-490.2072294229
 10
830.4691376866
 20
-489.6740973254
 10
831.9587651522
 20
-489.4665269165
 10
833.3384793952
 20
-489.5898941607
 10
834.5725465413
 20
-490.0410039113
 10
835.6290048997
 20
-490.8081726627
 10
836.4804927538
 20
-491.8715311471
 10
837.1049570155
 20
-493.2035389384
 10
837.4862243884
 20
-494.7696977345
 10
837.6144202479
 20
-496.5294448452
  0
LWPOLYLINE
  5
1D1
330
1F
100
AcDbEntity
  8
0
  6
Continuous
 62
     7
370
    25
100
AcDbPolyline
 90
       40
 70
   128
 43
0.0
 10
873.6355686208
 20
-266.618204861
 10
873.5073727614
 20
-268.5259637605
 10
873.1261053885
 20
-270.5323244954
 10
872.5016411268
 20
-272.5853233765
 10
871.6501532727
 20
-274.6317888113
 10
870.5936949143
 20
-276.6187184199
 10
869.3596277682
 20
-278.4946517692
 10
867.9799135252
 20
-280.2110031707
 10
866.4902860595
 20
-281.7233200248
 10
864.9293259401
 20
-282.9924341193
 10
863.337461214
 20
-283.9854760658
 10
861.7559203415
 20
-284.6767265995
 10
860.2256644005
 20
-285.0482826947
 10
858.7863262159
 20
-285.0905212436
 10
857.4751838908
 20
-284.8023482901
 10
856.3261953227
 20
-284.1912273623
 10
855.3691187119
 20
-283.2729861711
 10
854.6287418399
 20
-282.0714066812
 10
854.1242400789
 20
-280.6176091701
 10
853.8686797593
 20
-278.9492462298
 10
853.8686797593
 20
-277.109527584
 10
854.1242400789
 20
-275.1461009793
 10
854.6287418399
 20
-273.1098181335
 10
855.3691187119
 20
-271.0534177026
 10
856.3261953227
 20
-269.0301593775
 10
857.4751838908
 20
-267.0924444863
 10
858.7863262159
 20
-265.2904588267
 10
860.2256644005
 20
-263.6708728807
 10
861.7559203415
 20
-262.2756330736
 10
863.337461214
 20
-261.1408753836
 10
864.9293259401
 20
-260.2959894387
 10
866.4902860595
 20
-259.7628573412
 10
867.9799135252
 20
-259.5552869322
 10
869.3596277682
 20
-259.6786541765
 10
870.5936949143
 20
-260.1297639271
 10
871.6501532727
 20
-260.8969326784
 10
872.5016411268
 20
-261.9602911629
 10
873.1261053885
 20
-263.2922989542
 10
873.5073727614
 20
-264.8584577503
 10
873.6355686208
 20
-266.618204861
  0
LWPOLYLINE
  5
1D2
330
1F
100
AcDbEntity
  8
0
  6
Continuous
 62
     7
370
    25
100
AcDbPolyline
 90
       40
 70
   128
 43
0.0
 10
783.704962015
 20
-214.6854937892
 10
783.5767661556
 20
-216.5932526887
 10
783.1954987827
 20
-218.5996134236
 10
782.571034521
 20
-220.6526123048
 10
781.7195466669
 20
-222.6990777396
 10
780.6630883085
 20
-224.6860073482
 10
779.4290211624
 20
-226.5619406975
 10
778.0493069194
 20
-228.278292099
 10
776.5596794537
 20
-229.7906089531
 10
774.9987193343
 20
-231.0597230476
 10
773.4068546082
 20
-232.0527649941
 10
771.8253137357
 20
-232.7440155278
 10
770.2950577947
 20
-233.1155716229
 10
768.8557196101
 20
-233.1578101719
 10
767.544577285
 20
-232.8696372184
 10
766.3955887169
 20
-232.2585162905
 10
765.4385121061
 20
-231.3402750994
 10
764.6981352341
 20
-230.1386956095
 10
764.1936334731
 20
-228.6848980984
 10
763.9380731535
 20
-227.0165351581
 10
763.9380731535
 20
-225.1768165123
 10
764.1936334731
 20
-223.2133899076
 10
764.6981352341
 20
-221.1771070617
 10
765.4385121061
 20
-219.1207066308
 10
766.3955887169
 20
-217.0974483058
 10
767.544577285
 20
-215.1597334146
 10
768.8557196101
 20
-213.3577477549
 10
770.2950577947
 20
-211.7381618089
 10
771.8253137357
 20
-210.3429220019
 10
773.4068546082
 20
-209.2081643118
 10
774.9987193343
 20
-208.363278367
 10
776.5596794538
 20
-207.8301462694
 10
778.0493069194
 20
-207.6225758605
 10
779.4290211624
 20
-207.7459431047
 10
780.6630883085
 20
-208.1970528553
 10
781.7195466669
 20
-208.9642216067
 10
782.571034521
 20
-210.0275800911
 10
783.1954987827
 20
-211.3595878825
 10
783.5767661556
 20
-212.9257466785
 10
783.704962015
 20
-214.6854937892
  0
LWPOLYLINE
  5
1D3
330
1F
100
AcDbEntity
  8
0
  6
Continuous
 62
     7
370
    25
100
AcDbPolyline
 90
       40
 70
   128
 43
0.0
 10
720.1144202479
 20
-236.7889971001
 10
719.9862243884
 20
-238.6967559996
 10
719.6049570155
 20
-240.7031167345
 10
718.9804927538
 20
-242.7561156156
 10
718.1290048997
 20
-244.8025810504
 10
717.0725465413
 20
-246.789510659
 10
715.8384793952
 20
-248.6654440083
 10
714.4587651522
 20
-250.3817954098
 10
712.9691376866
 20
-251.8941122639
 10
711.4081775671
 20
-253.1632263584
 10
709.816312841
 20
-254.1562683049
 10
708.2347719685
 20
-254.8475188386
 10
706.7045160275
 20
-255.2190749337
 10
705.2651778429
 20
-255.2613134827
 10
703.9540355179
 20
-254.9731405292
 10
702.8050469497
 20
-254.3620196013
 10
701.8479703389
 20
-253.4437784102
 10
701.107593467
 20
-252.2421989203
 10
700.6030917059
 20
-250.7884014092
 10
700.3475313863
 20
-249.1200384689
 10
700.3475313863
 20
-247.2803198231
 10
700.6030917059
 20
-245.3168932184
 10
701.107593467
 20
-243.2806103726
 10
701.8479703389
 20
-241.2242099416
 10
702.8050469497
 20
-239.2009516166
 10
703.9540355179
 20
-237.2632367254
 10
705.2651778429
 20
-235.4612510657
 10
706.7045160275
 20
-233.8416651197
 10
708.2347719685
 20
-232.4464253127
 10
709.816312841
 20
-231.3116676227
 10
711.4081775671
 20
-230.4667816778
 10
712.9691376866
 20
-229.9336495803
 10
714.4587651522
 20
-229.7260791713
 10
715.8384793952
 20
-229.8494464156
 10
717.0725465413
 20
-230.3005561662
 10
718.1290048997
 20
-231.0677249175
 10
718.9804927538
 20
-232.131083402
 10
719.6049570155
 20
-233.4630911933
 10
719.9862243884
 20
-235.0292499894
 10
720.1144202479
 20
-236.7889971001
  0
LWPOLYLINE
  5
1D4
330
1F
100
AcDbEntity
  8
0
  6
Continuous
 62
     7
370
    25
100
AcDbPolyline
 90
      146
 70
   128
 43
0.0
 10
843.8581069555
 20
-357.2403781087
 10
843.7326564008
 20
-363.998018289
 10
843.3565402569
 20
-370.8878138333
 10
842.7304646427
 20
-377.8968298705
 10
841.8556049497
 20
-385.0119077052
 10
840.7336036355
 20
-392.2196895224
 10
839.3665671404
 20
-399.5066434647
 10
837.7570619326
 20
-406.8590890376
 10
835.9081096898
 20
-414.2632227927
 10
833.8231816268
 20
-421.7051442425
 10
831.5061919782
 20
-429.1708819571
 10
828.9614906499
 20
-436.646419794
 10
826.1938550527
 20
-444.1177232121
 10
823.2084811333
 20
-451.5707656198
 10
820.0109736194
 20
-458.9915547087
 10
816.6073354971
 20
-466.3661587228
 10
813.0039567414
 20
-473.6807326135
 10
809.2076023194
 20
-480.9215440327
 10
805.2253994899
 20
-488.0749991135
 10
801.0648244226
 20
-495.1276679914
 10
796.7336881623
 20
-502.0663100176
 10
792.2401219651
 20
-508.8778986166
 10
787.5925620317
 20
-515.5496457425
 10
782.7997336704
 20
-522.0690258873
 10
777.8706349157
 20
-528.4237995959
 10
772.8145196354
 20
-534.6020364448
 10
767.6408801576
 20
-540.5921374396
 10
762.35942945
 20
-546.3828567918
 10
756.9800828843
 20
-551.9633230309
 10
751.5129396217
 20
-557.3230594144
 10
745.9682636523
 20
-562.4520035975
 10
740.356464526
 20
-567.3405265232
 10
734.6880778092
 20
-571.9794505007
 10
728.9737453058
 20
-576.3600664348
 10
723.2241950779
 20
-580.4741501769
 10
717.4502213054
 20
-584.3139779646
 10
711.6626640206
 20
-587.8723409225
 10
705.8723887576
 20
-591.1425585959
 10
700.0902661533
 20
-594.1184914927
 10
694.3271515386
 20
-596.7945526101
 10
688.5938645592
 20
-599.1657179227
 10
682.9011688621
 20
-601.2275358156
 10
677.2597518889
 20
-602.976135441
 10
671.6802048103
 20
-604.4082339859
 10
666.173002643
 20
-605.5211428348
 10
660.7484845837
 20
-606.3127726178
 10
655.4168345982
 20
-606.7816371326
 10
650.1880623023
 20
-606.926856135
 10
645.0719841696
 20
-606.7481569916
 10
640.0782051022
 20
-606.2458751913
 10
635.2161003986
 20
-605.4209537157
 10
630.4947981523
 20
-604.2749412687
 10
625.9231621149
 20
-602.809989369
 10
621.5097750555
 20
-601.0288483106
 10
617.2629226471
 20
-598.9348619998
 10
613.1905779113
 20
-596.5319616771
 10
609.3003862498
 20
-593.8246585368
 10
605.5996510911
 20
-590.8180352575
 10
602.0953201787
 20
-587.5177364605
 10
598.7939725278
 20
-583.9299581118
 10
595.7018060735
 20
-580.0614358903
 10
592.8246260354
 20
-575.9194325425
 10
590.1678340183
 20
-571.5117242467
 10
587.7364178716
 20
-566.8465860147
 10
585.5349423251
 20
-561.9327761561
 10
583.5675404191
 20
-556.7795198355
 10
581.8379057451
 20
-551.3964917532
 10
580.3492855115
 20
-545.7937979819
 10
579.1044744473
 20
-539.9819569938
 10
578.105809555
 20
-533.971879913
 10
577.3551657238
 20
-527.7748500314
 10
576.853952209
 20
-521.4025016249
 10
576.6031099865
 20
-514.8667981119
 10
576.6031099865
 20
-508.1800095929
 10
576.853952209
 20
-501.3546898145
 10
577.3551657238
 20
-494.4036526015
 10
578.105809555
 20
-487.3399478001
 10
579.1044744473
 20
-480.1768367777
 10
580.3492855115
 20
-472.9277675271
 10
581.8379057451
 20
-465.6063494182
 10
583.5675404191
 20
-458.2263276485
 10
585.5349423251
 20
-450.8015574377
 10
587.7364178716
 20
-443.3459780163
 10
590.1678340183
 20
-435.8735864554
 10
592.8246260354
 20
-428.3984113895
 10
595.7018060735
 20
-420.9344866787
 10
598.7939725278
 20
-413.4958250618
 10
602.0953201787
 20
-406.0963918486
 10
605.5996510911
 20
-398.7500787019
 10
609.3003862498
 20
-391.4706775571
 10
613.1905779113
 20
-384.2718547291
 10
617.2629226471
 20
-377.1671252557
 10
621.5097750555
 20
-370.169827524
 10
625.9231621149
 20
-363.2930982295
 10
630.4947981523
 20
-356.5498477127
 10
635.2161003986
 20
-349.9527357221
 10
640.0782051022
 20
-343.514147646
 10
645.0719841696
 20
-337.2461712608
 10
650.1880623023
 20
-331.1605740372
 10
655.4168345982
 20
-325.2687810482
 10
660.7484845837
 20
-319.5818535194
 10
666.173002643
 20
-314.1104680631
 10
671.6802048103
 20
-308.8648966338
 10
677.2597518889
 20
-303.8549872437
 10
682.9011688621
 20
-299.0901454743
 10
688.5938645592
 20
-294.5793168181
 10
694.3271515386
 20
-290.3309698845
 10
700.0902661533
 20
-286.3530805011
 10
705.8723887576
 20
-282.6531167395
 10
711.6626640206
 20
-279.2380248951
 10
717.4502213054
 20
-276.1142164459
 10
723.2241950779
 20
-273.287556016
 10
728.9737453058
 20
-270.763350365
 10
734.6880778092
 20
-268.5463384251
 10
740.356464526
 20
-266.6406824047
 10
745.9682636523
 20
-265.0499599739
 10
751.5129396217
 20
-263.7771575477
 10
756.9800828843
 20
-262.8246646798
 10
762.35942945
 20
-262.1942695759
 10
767.6408801577
 20
-261.8871557371
 10
772.8145196354
 20
-261.9038997375
 10
777.8706349157
 20
-262.2444701419
 10
782.7997336704
 20
-262.908227565
 10
787.5925620317
 20
-263.8939258716
 10
792.2401219651
 20
-265.1997145161
 10
796.7336881623
 20
-266.8231420168
 10
801.0648244226
 20
-268.7611605582
 10
805.2253994899
 20
-271.010131713
 10
809.2076023194
 20
-273.5658332727
 10
813.0039567414
 20
-276.4234671748
 10
816.6073354971
 20
-279.5776685103
 10
820.0109736194
 20
-283.0225155956
 10
823.2084811333
 20
-286.7515410903
 10
826.1938550527
 20
-290.7577441388
 10
828.9614906499
 20
-295.0336035133
 10
831.5061919782
 20
-299.5710917347
 10
833.8231816268
 20
-304.3616901429
 10
835.9081096898
 20
-309.39640489
 10
837.7570619326
 20
-314.6657838251
 10
839.3665671404
 20
-320.1599342399
 10
840.7336036355
 20
-325.8685414411
 10
841.8556049497
 20
-331.780888115
 10
842.7304646427
 20
-337.8858744486
 10
843.3565402569
 20
-344.1720389679
 10
843.7326564008
 20
-350.6275800559
 10
843.8581069555
 20
-357.2403781087
  0
LWPOLYLINE
  5
1D5
330
1F
100
AcDbEntity
  8
0
  6
Continuous
 62
     7
370
    25
100
AcDbPolyline
 90
       40
 70
   128
 43
0.0
 10
886.2845138267
 20
-332.7481347541
 10
886.1563179673
 20
-334.6558936536
 10
885.7750505943
 20
-336.6622543885
 10
885.1505863326
 20
-338.7152532696
 10
884.2990984785
 20
-340.7617187044
 10
883.2426401201
 20
-342.748648313
 10
882.008572974
 20
-344.6245816623
 10
880.6288587311
 20
-346.3409330638
 10
879.1392312654
 20
-347.8532499179
 10
877.578271146
 20
-349.1223640124
 10
875.9864064199
 20
-350.1154059589
 10
874.4048655474
 20
-350.8066564926
 10
872.8746096063
 20
-351.1782125878
 10
871.4352714218
 20
-351.2204511367
 10
870.1241290967
 20
-350.9322781832
 10
868.9751405286
 20
-350.3211572554
 10
868.0180639178
 20
-349.4029160642
 10
867.2776870458
 20
-348.2013365743
 10
866.7731852847
 20
-346.7475390632
 10
866.5176249652
 20
-345.0791761229
 10
866.5176249652
 20
-343.2394574771
 10
866.7731852847
 20
-341.2760308724
 10
867.2776870458
 20
-339.2397480266
 10
868.0180639178
 20
-337.1833475957
 10
868.9751405286
 20
-335.1600892706
 10
870.1241290967
 20
-333.2223743794
 10
871.4352714218
 20
-331.4203887197
 10
872.8746096063
 20
-329.8008027738
 10
874.4048655474
 20
-328.4055629667
 10
875.9864064199
 20
-327.2708052767
 10
877.578271146
 20
-326.4259193318
 10
879.1392312654
 20
-325.8927872343
 10
880.6288587311
 20
-325.6852168253
 10
882.008572974
 20
-325.8085840696
 10
883.2426401201
 20
-326.2596938202
 10
884.2990984785
 20
-327.0268625715
 10
885.1505863326
 20
-328.090221056
 10
885.7750505943
 20
-329.4222288473
 10
886.1563179673
 20
-330.9883876434
 10
886.2845138267
 20
-332.7481347541
  0
LWPOLYLINE
  5
1D6
330
1F
100
AcDbEntity
  8
0
  6
Continuous
 62
     7
370
    25
100
AcDbPolyline
 90
       40
 70
   128
 43
0.0
 10
837.6144202479
 20
-225.1601186012
 10
837.4862243884
 20
-227.0678775007
 10
837.1049570155
 20
-229.0742382356
 10
836.4804927538
 20
-231.1272371167
 10
835.6290048997
 20
-233.1737025515
 10
834.5725465413
 20
-235.1606321601
 10
833.3384793952
 20
-237.0365655094
 10
831.9587651522
 20
-238.7529169109
 10
830.4691376866
 20
-240.265233765
 10
828.9081775671
 20
-241.5343478595
 10
827.316312841
 20
-242.527389806
 10
825.7347719685
 20
-243.2186403397
 10
824.2045160275
 20
-243.5901964349
 10
822.765177843
 20
-243.6324349838
 10
821.4540355179
 20
-243.3442620303
 10
820.3050469497
 20
-242.7331411025
 10
819.3479703389
 20
-241.8148999113
 10
818.607593467
 20
-240.6133204214
 10
818.1030917059
 20
-239.1595229103
 10
817.8475313864
 20
-237.49115997
 10
817.8475313864
 20
-235.6514413242
 10
818.1030917059
 20
-233.6880147195
 10
818.607593467
 20
-231.6517318737
 10
819.3479703389
 20
-229.5953314428
 10
820.3050469497
 20
-227.5720731177
 10
821.4540355179
 20
-225.6343582265
 10
822.765177843
 20
-223.8323725668
 10
824.2045160275
 20
-222.2127866209
 10
825.7347719685
 20
-220.8175468138
 10
827.316312841
 20
-219.6827891238
 10
828.9081775671
 20
-218.8379031789
 10
830.4691376866
 20
-218.3047710814
 10
831.9587651522
 20
-218.0972006724
 10
833.3384793952
 20
-218.2205679167
 10
834.5725465413
 20
-218.6716776673
 10
835.6290048997
 20
-219.4388464186
 10
836.4804927538
 20
-220.5022049031
 10
837.1049570155
 20
-221.8342126944
 10
837.4862243884
 20
-223.4003714905
 10
837.6144202479
 20
-225.1601186012
  0
LWPOLYLINE
  5
1D7
330
1F
100
AcDbEntity
  8
0
  6
Continuous
 62
     7
370
    25
100
AcDbPolyline
 90
       40
 70
   128
 43
0.0
 10
873.6355686208
 20
-413.4822259236
 10
873.5073727614
 20
-415.3899848231
 10
873.1261053885
 20
-417.396345558
 10
872.5016411268
 20
-419.4493444391
 10
871.6501532726
 20
-421.4958098739
 10
870.5936949143
 20
-423.4827394825
 10
869.3596277682
 20
-425.3586728318
 10
867.9799135252
 20
-427.0750242333
 10
866.4902860595
 20
-428.5873410874
 10
864.9293259401
 20
-429.8564551819
 10
863.337461214
 20
-430.8494971284
 10
861.7559203415
 20
-431.5407476621
 10
860.2256644004
 20
-431.9123037572
 10
858.7863262159
 20
-431.9545423062
 10
857.4751838908
 20
-431.6663693527
 10
856.3261953227
 20
-431.0552484248
 10
855.3691187119
 20
-430.1370072337
 10
854.6287418399
 20
-428.9354277438
 10
854.1242400789
 20
-427.4816302327
 10
853.8686797593
 20
-425.8132672924
 10
853.8686797593
 20
-423.9735486466
 10
854.1242400789
 20
-422.0101220419
 10
854.6287418399
 20
-419.973839196
 10
855.3691187119
 20
-417.9174387651
 10
856.3261953227
 20
-415.8941804401
 10
857.4751838908
 20
-413.9564655489
 10
858.7863262159
 20
-412.1544798892
 10
860.2256644004
 20
-410.5348939432
 10
861.7559203415
 20
-409.1396541362
 10
863.337461214
 20
-408.0048964461
 10
864.9293259401
 20
-407.1600105013
 10
866.4902860595
 20
-406.6268784037
 10
867.9799135252
 20
-406.4193079948
 10
869.3596277682
 20
-406.5426752391
 10
870.5936949143
 20
-406.9937849896
 10
871.6501532726
 20
-407.760953741
 10
872.5016411268
 20
-408.8243122254
 10
873.1261053885
 20
-410.1563200168
 10
873.5073727614
 20
-411.7224788129
 10
873.6355686208
 20
-413.4822259236
  0
LWPOLYLINE
  5
1D8
330
1F
100
AcDbEntity
  8
0
  6
Continuous
 62
     7
370
    25
100
AcDbPolyline
 90
       40
 70
   128
 43
0.0
 10
783.704962015
 20
-569.2466052631
 10
783.5767661556
 20
-571.1543641626
 10
783.1954987827
 20
-573.1607248975
 10
782.571034521
 20
-575.2137237787
 10
781.7195466668
 20
-577.2601892135
 10
780.6630883084
 20
-579.2471188221
 10
779.4290211623
 20
-581.1230521714
 10
778.0493069194
 20
-582.8394035729
 10
776.5596794537
 20
-584.351720427
 10
774.9987193343
 20
-585.6208345215
 10
773.4068546082
 20
-586.613876468
 10
771.8253137357
 20
-587.3051270017
 10
770.2950577946
 20
-587.6766830968
 10
768.8557196101
 20
-587.7189216458
 10
767.544577285
 20
-587.4307486923
 10
766.3955887169
 20
-586.8196277644
 10
765.4385121061
 20
-585.9013865733
 10
764.6981352341
 20
-584.6998070834
 10
764.1936334731
 20
-583.2460095723
 10
763.9380731535
 20
-581.577646632
 10
763.9380731535
 20
-579.7379279862
 10
764.1936334731
 20
-577.7745013815
 10
764.6981352341
 20
-575.7382185356
 10
765.4385121061
 20
-573.6818181047
 10
766.3955887169
 20
-571.6585597797
 10
767.544577285
 20
-569.7208448885
 10
768.8557196101
 20
-567.9188592288
 10
770.2950577946
 20
-566.2992732828
 10
771.8253137357
 20
-564.9040334758
 10
773.4068546082
 20
-563.7692757857
 10
774.9987193343
 20
-562.9243898409
 10
776.5596794537
 20
-562.3912577433
 10
778.0493069194
 20
-562.1836873344
 10
779.4290211623
 20
-562.3070545786
 10
780.6630883084
 20
-562.7581643292
 10
781.7195466668
 20
-563.5253330806
 10
782.571034521
 20
-564.588691565
 10
783.1954987827
 20
-565.9206993564
 10
783.5767661556
 20
-567.4868581524
 10
783.704962015
 20
-569.2466052631
  0
LWPOLYLINE
  5
1D9
330
1F
100
AcDbEntity
  8
0
  6
Continuous
 62
     7
370
    25
100
AcDbPolyline
 90
       40
 70
   128
 43
0.0
 10
656.5238784807
 20
-642.6666819973
 10
656.3956826212
 20
-644.5744408968
 10
656.0144152483
 20
-646.5808016317
 10
655.3899509866
 20
-648.6338005128
 10
654.5384631325
 20
-650.6802659476
 10
653.4820047741
 20
-652.6671955562
 10
652.247937628
 20
-654.5431289055
 10
650.868223385
 20
-656.259480307
 10
649.3785959194
 20
-657.7717971611
 10
647.8176357999
 20
-659.0409112556
 10
646.2257710738
 20
-660.0339532021
 10
644.6442302013
 20
-660.7252037358
 10
643.1139742603
 20
-661.0967598309
 10
641.6746360757
 20
-661.1389983799
 10
640.3634937507
 20
-660.8508254264
 10
639.2145051825
 20
-660.2397044985
 10
638.2574285717
 20
-659.3214633074
 10
637.5170516998
 20
-658.1198838175
 10
637.0125499387
 20
-656.6660863064
 10
636.7569896191
 20
-654.9977233661
 10
636.7569896191
 20
-653.1580047203
 10
637.0125499387
 20
-651.1945781156
 10
637.5170516998
 20
-649.1582952697
 10
638.2574285717
 20
-647.1018948388
 10
639.2145051825
 20
-645.0786365138
 10
640.3634937507
 20
-643.1409216226
 10
641.6746360757
 20
-641.3389359629
 10
643.1139742603
 20
-639.7193500169
 10
644.6442302013
 20
-638.3241102099
 10
646.2257710738
 20
-637.1893525198
 10
647.8176357999
 20
-636.344466575
 10
649.3785959194
 20
-635.8113344774
 10
650.868223385
 20
-635.6037640685
 10
652.247937628
 20
-635.7271313128
 10
653.4820047741
 20
-636.1782410633
 10
654.5384631325
 20
-636.9454098147
 10
655.3899509866
 20
-638.0087682991
 10
656.0144152483
 20
-639.3407760905
 10
656.3956826212
 20
-640.9069348866
 10
656.5238784807
 20
-642.6666819973
  0
LWPOLYLINE
  5
1DA
330
1F
100
AcDbEntity
  8
0
  6
Continuous
 62
     7
370
    25
100
AcDbPolyline
 90
       40
 70
   128
 43
0.0
 10
566.5932718749
 20
-590.7339709255
 10
566.4650760154
 20
-592.641729825
 10
566.0838086425
 20
-594.6480905599
 10
565.4593443808
 20
-596.7010894411
 10
564.6078565267
 20
-598.7475548759
 10
563.5513981683
 20
-600.7344844845
 10
562.3173310222
 20
-602.6104178337
 10
560.9376167792
 20
-604.3267692353
 10
559.4479893136
 20
-605.8390860894
 10
557.8870291941
 20
-607.1082001839
 10
556.295164468
 20
-608.1012421303
 10
554.7136235955
 20
-608.792492664
 10
553.1833676545
 20
-609.1640487592
 10
551.7440294699
 20
-609.2062873081
 10
550.4328871449
 20
-608.9181143546
 10
549.2838985767
 20
-608.3069934268
 10
548.3268219659
 20
-607.3887522356
 10
547.586445094
 20
-606.1871727457
 10
547.0819433329
 20
-604.7333752347
 10
546.8263830133
 20
-603.0650122943
 10
546.8263830133
 20
-601.2252936485
 10
547.0819433329
 20
-599.2618670439
 10
547.586445094
 20
-597.225584198
 10
548.3268219659
 20
-595.1691837671
 10
549.2838985767
 20
-593.1459254421
 10
550.4328871449
 20
-591.2082105508
 10
551.7440294699
 20
-589.4062248912
 10
553.1833676545
 20
-587.7866389452
 10
554.7136235955
 20
-586.3913991381
 10
556.295164468
 20
-585.2566414481
 10
557.8870291941
 20
-584.4117555032
 10
559.4479893136
 20
-583.8786234057
 10
560.9376167792
 20
-583.6710529968
 10
562.3173310222
 20
-583.794420241
 10
563.5513981683
 20
-584.2455299916
 10
564.6078565267
 20
-585.012698743
 10
565.4593443808
 20
-586.0760572274
 10
566.0838086425
 20
-587.4080650187
 10
566.4650760154
 20
-588.9742238148
 10
566.5932718749
 20
-590.7339709255
  0
LWPOLYLINE
  5
1DB
330
1F
100
AcDbEntity
  8
0
  6
Continuous
 62
     7
370
    25
100
AcDbPolyline
 90
       40
 70
   128
 43
0.0
 10
566.5932718749
 20
-443.8699498629
 10
566.4650760154
 20
-445.7777087624
 10
566.0838086425
 20
-447.7840694973
 10
565.4593443808
 20
-449.8370683785
 10
564.6078565267
 20
-451.8835338133
 10
563.5513981683
 20
-453.8704634219
 10
562.3173310222
 20
-455.7463967712
 10
560.9376167792
 20
-457.4627481727
 10
559.4479893136
 20
-458.9750650268
 10
557.8870291941
 20
-460.2441791213
 10
556.295164468
 20
-461.2372210678
 10
554.7136235955
 20
-461.9284716015
 10
553.1833676545
 20
-462.3000276966
 10
551.7440294699
 20
-462.3422662456
 10
550.4328871449
 20
-462.054093292
 10
549.2838985767
 20
-461.4429723642
 10
548.3268219659
 20
-460.5247311731
 10
547.586445094
 20
-459.3231516832
 10
547.0819433329
 20
-457.8693541721
 10
546.8263830133
 20
-456.2009912318
 10
546.8263830133
 20
-454.361272586
 10
547.0819433329
 20
-452.3978459813
 10
547.586445094
 20
-450.3615631354
 10
548.3268219659
 20
-448.3051627045
 10
549.2838985767
 20
-446.2819043795
 10
550.4328871449
 20
-444.3441894882
 10
551.7440294699
 20
-442.5422038286
 10
553.1833676545
 20
-440.9226178826
 10
554.7136235955
 20
-439.5273780756
 10
556.295164468
 20
-438.3926203855
 10
557.8870291941
 20
-437.5477344407
 10
559.4479893136
 20
-437.0146023431
 10
560.9376167792
 20
-436.8070319342
 10
562.3173310222
 20
-436.9303991784
 10
563.5513981683
 20
-437.381508929
 10
564.6078565267
 20
-438.1486776804
 10
565.4593443808
 20
-439.2120361648
 10
566.0838086425
 20
-440.5440439561
 10
566.4650760154
 20
-442.1102027522
 10
566.5932718749
 20
-443.8699498629
  0
LWPOLYLINE
  5
1DC
330
1F
100
AcDbEntity
  8
0
  6
Continuous
 62
     7
370
    25
100
AcDbPolyline
 90
       40
 70
   128
 43
0.0
 10
656.5238784807
 20
-288.1055705234
 10
656.3956826212
 20
-290.0133294229
 10
656.0144152483
 20
-292.0196901578
 10
655.3899509866
 20
-294.0726890389
 10
654.5384631325
 20
-296.1191544737
 10
653.4820047741
 20
-298.1060840823
 10
652.247937628
 20
-299.9820174316
 10
650.868223385
 20
-301.6983688331
 10
649.3785959194
 20
-303.2106856872
 10
647.8176357999
 20
-304.4797997817
 10
646.2257710738
 20
-305.4728417282
 10
644.6442302013
 20
-306.1640922619
 10
643.1139742603
 20
-306.535648357
 10
641.6746360758
 20
-306.577886906
 10
640.3634937507
 20
-306.2897139525
 10
639.2145051825
 20
-305.6785930246
 10
638.2574285717
 20
-304.7603518335
 10
637.5170516998
 20
-303.5587723436
 10
637.0125499387
 20
-302.1049748325
 10
636.7569896192
 20
-300.4366118922
 10
636.7569896192
 20
-298.5968932464
 10
637.0125499387
 20
-296.6334666417
 10
637.5170516998
 20
-294.5971837958
 10
638.2574285717
 20
-292.5407833649
 10
639.2145051825
 20
-290.5175250399
 10
640.3634937507
 20
-288.5798101487
 10
641.6746360758
 20
-286.777824489
 10
643.1139742603
 20
-285.158238543
 10
644.6442302013
 20
-283.762998736
 10
646.2257710738
 20
-282.6282410459
 10
647.8176357999
 20
-281.7833551011
 10
649.3785959194
 20
-281.2502230035
 10
650.868223385
 20
-281.0426525946
 10
652.247937628
 20
-281.1660198389
 10
653.4820047741
 20
-281.6171295894
 10
654.5384631325
 20
-282.3842983408
 10
655.3899509866
 20
-283.4476568252
 10
656.0144152483
 20
-284.7796646166
 10
656.3956826212
 20
-286.3458234127
 10
656.5238784807
 20
-288.1055705234
  0
ARC
  5
1DD
330
1F
100
AcDbEntity
  8
0
  6
Continuous
 62
     7
370
    25
100
AcDbCircle
 10
772.1964903259
 20
-328.6808664654
 30
0.0
 40
65.39948262870544
100
AcDbArc
 50
33.9752383988
 51
85.1422902953
  0
ARC
  5
1DE
330
1F
100
AcDbEntity
  8
0
  6
Continuous
 62
     7
370
    25
100
AcDbCircle
 10
649.3208887183
 20
-541.5073403445
 30
0.0
 40
64.75813157785332
100
AcDbArc
 50
216.8224093567
 51
263.1961101553
  0
ARC
  5
1DF
330
1F
100
AcDbEntity
  8
0
  6
Continuous
 62
     7
370
    25
100
AcDbCircle
 10
681.6647811535
 20
-554.1222729484
 30
0.0
 40
70.23618083787902
100
AcDbArc
 50
216.5434443442
 51
225.1626224451
  0
ARC
  5
1E0
330
1F
100
AcDbEntity
  8
0
  6
Continuous
 62
     7
370
    25
100
AcDbCircle
 10
799.6563166249
 20
-349.5918574369
 30
0.0
 40
70.034356577155
100
AcDbArc
 50
74.8268686399
 51
83.8114625345
  0
LINE
  5
1E1
330
1F
100
AcDbEntity
  8
0
  6
Continuous
 62
     7
370
    25
100
AcDbLine
 10
835.1675903699
 20
-491.5471209538
 30
0.0
 11
834.9215038546
 21
-491.3938704729
 31
0.0
  0
LINE
  5
1E2
330
1F
100
AcDbEntity
  8
0
  6
Continuous
 62
     7
370
    25
100
AcDbLine
 10
871.1887387429
 20
-408.4999020322
 30
0.0
 11
870.9426522275
 21
-408.3466515513
 31
0.0
  0
LINE
  5
1E3
330
1F
100
AcDbEntity
  8
0
  6
Continuous
 62
     7
370
    25
100
AcDbLine
 10
781.2581321371
 20
-564.2642813718
 30
0.0
 11
781.0120456217
 21
-564.1110308909
 31
0.0
  0
LINE
  5
1E4
330
1F
100
AcDbEntity
  8
0
  6
Continuous
 62
     7
370
    25
100
AcDbLine
 10
883.8376839488
 20
-327.7658108627
 30
0.0
 11
883.5915974334
 21
-327.6125603818
 31
0.0
  0
LINE
  5
1E5
330
1F
100
AcDbEntity
  8
0
  6
Continuous
 62
     7
370
    25
100
AcDbLine
 10
717.6675903699
 20
-615.580854795
 30
0.0
 11
717.4215038545
 21
-615.4276043141
 31
0.0
  0
LINE
  5
1E6
330
1F
100
AcDbEntity
  8
0
  6
Continuous
 62
     7
370
    25
100
AcDbLine
 10
871.1887387429
 20
-261.6358809696
 30
0.0
 11
870.9426522276
 21
-261.4826304887
 31
0.0
  0
LINE
  5
1E7
330
1F
100
AcDbEntity
  8
0
  6
Continuous
 62
     7
370
    25
100
AcDbLine
 10
654.0770486027
 20
-637.6843581059
 30
0.0
 11
653.8309620874
 21
-637.531107625
 31
0.0
  0
LINE
  5
1E8
330
1F
100
AcDbEntity
  8
0
  6
Continuous
 62
     7
370
    25
100
AcDbLine
 10
835.1675903699
 20
-220.1777947098
 30
0.0
 11
834.9215038546
 21
-220.0245442289
 31
0.0
  0
LINE
  5
1E9
330
1F
100
AcDbEntity
  8
0
  6
Continuous
 62
     7
370
    25
100
AcDbLine
 10
600.1675903699
 20
-627.2097332939
 30
0.0
 11
599.9215038545
 21
-627.056482813
 31
0.0
  0
LINE
  5
1EA
330
1F
100
AcDbEntity
  8
0
  6
Continuous
 62
     7
370
    25
100
AcDbLine
 10
781.2581321371
 20
-209.7031698979
 30
0.0
 11
781.0120456218
 21
-209.549919417
 31
0.0
  0
LINE
  5
1EB
330
1F
100
AcDbEntity
  8
0
  6
Continuous
 62
     7
370
    25
100
AcDbLine
 10
564.1464419969
 20
-585.7516470341
 30
0.0
 11
563.9003554816
 21
-585.5983965532
 31
0.0
  0
LINE
  5
1EC
330
1F
100
AcDbEntity
  8
0
  6
Continuous
 62
     7
370
    25
100
AcDbLine
 10
717.6675903699
 20
-231.8066732087
 30
0.0
 11
717.4215038546
 21
-231.6534227278
 31
0.0
  0
LINE
  5
1ED
330
1F
100
AcDbEntity
  8
0
  6
Continuous
 62
     7
370
    25
100
AcDbLine
 10
551.497496791
 20
-519.621717141
 30
0.0
 11
551.2514102757
 21
-519.4684666601
 31
0.0
  0
LINE
  5
1EE
330
1F
100
AcDbEntity
  8
0
  6
Continuous
 62
     7
370
    25
100
AcDbLine
 10
654.0770486027
 20
-283.123246632
 30
0.0
 11
653.8309620874
 21
-282.9699961511
 31
0.0
  0
LINE
  5
1EF
330
1F
100
AcDbEntity
  8
0
  6
Continuous
 62
     7
370
    25
100
AcDbLine
 10
564.1464419969
 20
-438.8876259716
 30
0.0
 11
563.9003554816
 21
-438.7343754907
 31
0.0
  0
LINE
  5
1F0
330
1F
100
AcDbEntity
  8
0
  6
Continuous
 62
     7
370
    25
100
AcDbLine
 10
600.1675903699
 20
-355.8404070499
 30
0.0
 11
599.9215038546
 21
-355.687156569
 31
0.0
  0
LWPOLYLINE
  5
1F1
330
1F
100
AcDbEntity
  8
0
  6
Continuous
 62
     1
370
    25
100
AcDbPolyline
 90
       59
 70
   128
 43
0.0
 10
899.0124358881
 20
-326.2168698595
 10
898.8883974084
 20
-334.1752210658
 10
898.5164455668
 20
-342.2662875915
 10
897.8970709396
 20
-350.4793979342
 10
897.0310904347
 20
-358.8037196251
 10
895.9196462147
 20
-367.2282735159
 10
894.5642041902
 20
-375.74194826
 10
892.9665520862
 20
-384.3335149667
 10
891.1287970846
 20
-392.9916420121
 10
889.0533630446
 20
-401.704909984
 10
886.7429873061
 20
-410.4618267438
 10
884.2007170793
 20
-419.250842583
 10
881.4299054256
 20
-428.0603654574
 10
878.434206835
 20
-436.8787762752
 10
875.2175724067
 20
-445.6944442221
 10
871.784244637
 20
-454.4957421017
 10
868.1387518247
 20
-463.2710616704
 10
864.2859020978
 20
-472.008828948
 10
860.2307770727
 20
-480.6975194831
 10
855.9787251512
 20
-489.3256735526
 10
851.5353544671
 20
-497.8819112766
 10
846.9065254886
 20
-506.3549476271
 10
842.0983432899
 20
-514.7336073128
 10
837.1171494981
 20
-523.0068395177
 10
831.9695139295
 20
-531.1637324769
 10
826.6622259245
 20
-539.1935278679
 10
821.202285393
 20
-547.0856350003
 10
815.596893582
 20
-554.8296447843
 10
809.8534435775
 20
-562.4153434589
 10
803.979510554
 20
-569.8327260637
 10
797.982841783
 20
-577.0720096343
 10
791.8713464154
 20
-584.1236461053
 10
785.6530850493
 20
-590.9783349038
 10
779.3362590994
 20
-597.6270352158
 10
772.9291999793
 20
-604.0609779105
 10
766.4403581135
 20
-610.2716771059
 10
759.8782917917
 20
-616.2509413616
 10
753.2516558811
 20
-621.990884482
 10
746.5691904111
 20
-627.4839359181
 10
739.8397090462
 20
-632.7228507521
 10
733.0720874615
 20
-637.7007192532
 10
726.2752516357
 20
-642.4109759908
 10
719.4581660793
 20
-646.847408494
 10
712.6298220104
 20
-651.0041654453
 10
705.7992254963
 20
-654.8757643979
 10
698.975385575
 20
-658.4570990067
 10
692.1673023733
 20
-661.7434457633
 10
685.3839552359
 20
-664.7304702261
 10
678.6342908825
 20
-667.4142327364
 10
671.9272116079
 20
-669.7911936155
 10
665.2715635403
 20
-671.8582178323
 10
658.6761249741
 20
-673.6125791389
 10
652.1495947919
 20
-675.051963666
 10
645.7005809913
 20
-676.1744729747
 10
639.337589332
 20
-676.9786265604
 10
633.0690121166
 20
-677.4633638056
 10
626.9031171226
 20
-677.6280453788
 10
620.8480366971
 20
-677.4724540773
 10
617.6625732257
 20
-677.2582286111
  0
LWPOLYLINE
  5
1F2
330
1F
100
AcDbEntity
  8
0
  6
Continuous
 62
     1
370
    25
100
AcDbPolyline
 90
       16
 70
   128
 43
0.0
 10
873.7759546536
 20
-232.1113915601
 10
875.2175724067
 20
-234.2122600939
 10
878.434206835
 20
-239.3140809814
 10
881.4299054256
 20
-244.6737318283
 10
884.2007170793
 20
-250.2841436622
 10
886.7429873061
 20
-256.1379167761
 10
889.0533630446
 20
-262.2273304875
 10
891.1287970846
 20
-268.5443533224
 10
892.9665520862
 20
-275.0806536073
 10
894.5642041902
 20
-281.8276104584
 10
895.9196462147
 20
-288.776325152
 10
897.0310904347
 20
-295.9176328612
 10
897.8970709396
 20
-303.2421147433
 10
898.5164455668
 20
-310.740110363
 10
898.8883974084
 20
-318.4017304334
 10
899.0124358881
 20
-326.2168698595
  0
LWPOLYLINE
  5
1F3
330
1F
100
AcDbEntity
  8
0
  6
Continuous
 62
     1
370
    25
100
AcDbPolyline
 90
       16
 70
   128
 43
0.0
 10
927.2967071355
 20
-342.5450320959
 10
927.1726686559
 20
-334.7298926698
 10
926.8007168143
 20
-327.0682725994
 10
926.181342187
 20
-319.5702769797
 10
925.3153616821
 20
-312.2457950976
 10
924.2039174622
 20
-305.1044873885
 10
922.8484754376
 20
-298.1557726948
 10
921.2508233337
 20
-291.4088158437
 10
919.413068332
 20
-284.8725155589
 10
917.337634292
 20
-278.555492724
 10
915.0272585536
 20
-272.4660790125
 10
912.4849883268
 20
-266.6123058987
 10
909.714176673
 20
-261.0018940647
 10
906.7184780825
 20
-255.6422432178
 10
903.5018436541
 20
-250.5404223304
 10
902.601178743
 20
-249.2154906262
  0
LWPOLYLINE
  5
1F4
330
1F
100
AcDbEntity
  8
0
  6
Continuous
 62
     1
370
    25
100
AcDbPolyline
 90
       59
 70
   128
 43
0.0
 10
645.950957797
 20
-693.5867281383
 10
649.1323079445
 20
-693.8006163138
 10
655.18738837
 20
-693.9562076152
 10
661.3532833641
 20
-693.7915260421
 10
667.6218605795
 20
-693.3067887968
 10
673.9848522388
 20
-692.5026352111
 10
680.4338660393
 20
-691.3801259025
 10
686.9603962215
 20
-689.9407413754
 10
693.5558347878
 20
-688.1863800688
 10
700.2114828554
 20
-686.1193558519
 10
706.91856213
 20
-683.7423949729
 10
713.6682264833
 20
-681.0586324625
 10
720.4515736208
 20
-678.0716079998
 10
727.2596568225
 20
-674.7852612431
 10
734.0834967437
 20
-671.2039266343
 10
740.9140932579
 20
-667.3323276818
 10
747.7424373268
 20
-663.1755707305
 10
754.5595228832
 20
-658.7391382272
 10
761.3563587089
 20
-654.0288814896
 10
768.1239802937
 20
-649.0510129885
 10
774.8534616585
 20
-643.8120981546
 10
781.5359271285
 20
-638.3190467185
 10
788.1625630392
 20
-632.5791035981
 10
794.724629361
 20
-626.5998393424
 10
801.2134712268
 20
-620.3891401469
 10
807.6205303468
 20
-613.9551974523
 10
813.9373562968
 20
-607.3064971403
 10
820.1556176628
 20
-600.4518083418
 10
826.2671130305
 20
-593.4001718707
 10
832.2637818014
 20
-586.1608883002
 10
838.1377148249
 20
-578.7435056954
 10
843.8811648294
 20
-571.1578070208
 10
849.4865566405
 20
-563.4137972368
 10
854.946497172
 20
-555.5216901043
 10
860.2537851769
 20
-547.4918947133
 10
865.4014207455
 20
-539.3350017542
 10
870.3826145374
 20
-531.0617695492
 10
875.1907967361
 20
-522.6831098636
 10
879.8196257145
 20
-514.210073513
 10
884.2629963987
 20
-505.6538357891
 10
888.5150483202
 20
-497.0256817196
 10
892.5701733453
 20
-488.3369911845
 10
896.4230230721
 20
-479.5992239069
 10
900.0685158845
 20
-470.8239043382
 10
903.5018436541
 20
-462.0226064586
 10
906.7184780825
 20
-453.2069385116
 10
909.714176673
 20
-444.3885276939
 10
912.4849883268
 20
-435.5790048195
 10
915.0272585536
 20
-426.7899889802
 10
917.337634292
 20
-418.0330722205
 10
919.413068332
 20
-409.3198042485
 10
921.2508233337
 20
-400.6616772032
 10
922.8484754376
 20
-392.0701104964
 10
924.2039174622
 20
-383.5564357524
 10
925.3153616821
 20
-375.1318818615
 10
926.181342187
 20
-366.8075601706
 10
926.8007168143
 20
-358.5944498279
 10
927.1726686559
 20
-350.5033833023
 10
927.2967071355
 20
-342.5450320959
  0
LWPOLYLINE
  5
1F5
330
1F
100
AcDbEntity
  8
0
  6
Continuous
 62
     1
370
    25
100
AcDbPolyline
 90
       63
 70
   128
 43
0.0
 10
777.7346161299
 20
-263.5162941068
 10
773.1904116318
 20
-263.2247336608
 10
768.0441459079
 20
-263.208078253
 10
762.7906393839
 20
-263.5135671509
 10
757.4397549693
 20
-264.1406268309
 10
752.0015383906
 20
-265.088080054
 10
746.4861993311
 20
-266.3541480758
 10
740.9040922637
 20
-267.9364539859
 10
735.2656970111
 20
-269.8320271702
 10
729.5815990712
 20
-272.0373088881
 10
723.8624697439
 20
-274.5481589537
 10
718.1190460972
 20
-277.3598635083
 10
712.3621108086
 20
-280.4671438705
 10
706.6024719227
 20
-283.8641664459
 10
700.8509425597
 20
-287.5445536796
 10
695.1183206149
 20
-291.5013960293
 10
689.4153684872
 20
-295.7272649367
 10
683.7527928732
 20
-300.2142267747
 10
678.141224667
 20
-304.9538577411
 10
672.5911990015
 20
-309.9372596741
 10
667.11313547
 20
-315.1550767572
 10
661.7173185645
 20
-320.5975130841
 10
656.4138783673
 20
-326.2543510492
 10
651.2127715333
 20
-332.1149705304
 10
646.123762597
 20
-338.1683688268
 10
641.1564056411
 20
-344.4031813158
 10
636.3200263592
 20
-350.8077027883
 10
631.6237045481
 20
-357.3699094245
 10
627.0762570612
 20
-364.0774813671
 10
622.686221256
 20
-370.9178258506
 10
618.4618389662
 20
-377.8781008429
 10
614.4110410279
 20
-384.9452391551
 10
610.5414323911
 20
-392.1059729734
 10
606.8602778417
 20
-399.3468587683
 10
603.3744883627
 20
-406.6543025332
 10
600.0906081596
 20
-414.0145853061
 10
597.0148023745
 20
-421.4138889251
 10
594.1528455111
 20
-428.8383219707
 10
591.5101105947
 20
-436.2739458458
 10
589.0915590837
 20
-443.7068009434
 10
586.9017315559
 20
-451.1229328547
 10
584.9447391839
 20
-458.5084185669
 10
583.2242560161
 20
-465.8493926024
 10
581.74351208
 20
-473.1320730494
 10
580.5052873177
 20
-480.3427874363
 10
579.5119063667
 20
-487.4679984003
 10
578.7652341959
 20
-494.4943291023
 10
578.2666726045
 20
-501.4085883406
 10
578.0171575896
 20
-508.1977953159
 10
578.0171575896
 20
-514.8492040015
 10
578.2666726045
 20
-521.3503270726
 10
578.7652341959
 20
-527.6889593499
 10
579.5119063667
 20
-533.8532007137
 10
580.5052873177
 20
-539.8314784448
 10
581.74351208
 20
-545.6125689515
 10
583.2242560161
 20
-551.1856188404
 10
584.9447391839
 20
-556.5401652927
 10
586.9017315559
 20
-561.6661557068
 10
589.0915590837
 20
-566.5539665715
 10
591.5101105947
 20
-571.1944215324
 10
594.1528455111
 20
-575.5788086203
 10
597.0148023745
 20
-579.6988966065
 10
597.4821972812
 20
-580.3192673199
  0
LWPOLYLINE
  5
1F6
330
1F
100
AcDbEntity
  8
0
  6
Continuous
 62
     1
370
    25
100
AcDbPolyline
 90
       63
 70
   128
 43
0.0
 10
625.2366396489
 20
-595.9431522437
 10
622.4371167586
 20
-591.9069708567
 10
619.7943818421
 20
-587.5225837688
 10
617.3758303311
 20
-582.8821288079
 10
615.1860028034
 20
-577.9943179433
 10
613.2290104313
 20
-572.8683275292
 10
611.5085272635
 20
-567.5137810769
 10
610.0277833275
 20
-561.940731188
 10
608.7895585651
 20
-556.1596406813
 10
607.7961776141
 20
-550.1813629502
 10
607.0495054434
 20
-544.0171215864
 10
606.5509438519
 20
-537.6784893091
 10
606.301428837
 20
-531.1773662379
 10
606.301428837
 20
-524.5259575523
 10
606.5509438519
 20
-517.736750577
 10
607.0495054434
 20
-510.8224913387
 10
607.7961776141
 20
-503.7961606367
 10
608.7895585651
 20
-496.6709496727
 10
610.0277833275
 20
-489.4602352858
 10
611.5085272635
 20
-482.1775548389
 10
613.2290104313
 20
-474.8365808034
 10
615.1860028034
 20
-467.4510950911
 10
617.3758303311
 20
-460.0349631798
 10
619.7943818421
 20
-452.6021080823
 10
622.4371167586
 20
-445.1664842072
 10
625.2990736219
 20
-437.7420511615
 10
628.3748794071
 20
-430.3427475426
 10
631.6587596102
 20
-422.9824647697
 10
635.1445490892
 20
-415.6750210047
 10
638.8257036386
 20
-408.4341352099
 10
642.6953122754
 20
-401.2734013916
 10
646.7461102136
 20
-394.2062630794
 10
650.9704925035
 20
-387.245988087
 10
655.3605283087
 20
-380.4056436035
 10
659.9079757956
 20
-373.698071661
 10
664.6042976067
 20
-367.1358650248
 10
669.4406768886
 20
-360.7313435523
 10
674.4080338445
 20
-354.4965310633
 10
679.4970427807
 20
-348.4431327668
 10
684.6981496147
 20
-342.5825132857
 10
690.001589812
 20
-336.9256753206
 10
695.3974067175
 20
-331.4832389937
 10
700.875470249
 20
-326.2654219105
 10
706.4254959144
 20
-321.2820199776
 10
712.0370641207
 20
-316.5423890111
 10
717.6996397347
 20
-312.0554271732
 10
723.4025918624
 20
-307.8295582657
 10
729.1352138071
 20
-303.8727159161
 10
734.8867431701
 20
-300.1923286823
 10
740.646382056
 20
-296.7953061069
 10
746.4033173446
 20
-293.6880257448
 10
752.1467409914
 20
-290.8763211902
 10
757.8658703186
 20
-288.3654711246
 10
763.5499682585
 20
-286.1601894066
 10
769.1883635112
 20
-284.2646162223
 10
774.7704705786
 20
-282.6823103123
 10
780.2858096381
 20
-281.4162422905
 10
785.7240262168
 20
-280.4687890674
 10
791.0749106314
 20
-279.8417293873
 10
796.3284171554
 20
-279.5362404895
 10
801.4746828793
 20
-279.5528958972
 10
806.5040462269
 20
-279.8916643418
 10
807.206052811
 20
-279.9656225487
  0
LWPOLYLINE
  5
1F7
330
1F
100
AcDbEntity
  8
0
  6
Continuous
 62
     1
370
    25
100
AcDbPolyline
 90
       21
 70
   128
 43
0.0
 10
834.9215038546
 20
-491.3938704729
 10
834.6478671893
 20
-491.2486757935
 10
833.4497918628
 20
-490.8634940032
 10
832.1145723561
 20
-490.7998857198
 10
830.6786299768
 20
-491.0595860116
 10
829.1811334896
 20
-491.6355109316
 10
827.6629306952
 20
-492.5119507493
 10
826.1654342081
 20
-493.6649984711
 10
824.7294918288
 20
-495.063201961
 10
823.3942723221
 20
-496.6684218727
 10
822.1961969955
 20
-498.4368719913
 10
821.1679462209
 20
-500.3203136078
 10
820.3375679988
 20
-502.2673713445
 10
819.7277128826
 20
-504.224934542
 10
819.3550161301
 20
-506.1396059793
 10
819.229643937
 20
-507.9591584107
 10
819.3550161301
 20
-509.6339591892
 10
819.7277128826
 20
-511.1183241153
 10
820.3375679988
 20
-512.3717635833
 10
821.1679462209
 20
-513.3600870321
 10
821.9739830721
 20
-513.9403606224
  0
LWPOLYLINE
  5
1F8
330
1F
100
AcDbEntity
  8
0
  6
Continuous
 62
     1
370
    25
100
AcDbPolyline
 90
       21
 70
   128
 43
0.0
 10
870.9426522275
 20
-408.3466515513
 10
870.6690155623
 20
-408.2014568718
 10
869.4709402358
 20
-407.8162750815
 10
868.1357207291
 20
-407.7526667982
 10
866.6997783497
 20
-408.01236709
 10
865.2022818626
 20
-408.58829201
 10
863.6840790682
 20
-409.4647318276
 10
862.1865825811
 20
-410.6177795495
 10
860.7506402017
 20
-412.0159830394
 10
859.4154206951
 20
-413.621202951
 10
858.2173453685
 20
-415.3896530697
 10
857.1890945939
 20
-417.2730946861
 10
856.3587163718
 20
-419.2201524228
 10
855.7488612556
 20
-421.1777156204
 10
855.376164503
 20
-423.0923870576
 10
855.25079231
 20
-424.9119394891
 10
855.376164503
 20
-426.5867402675
 10
855.7488612556
 20
-428.0711051936
 10
856.3587163718
 20
-429.3245446617
 10
857.1890945939
 20
-430.3128681105
 10
857.9951314451
 20
-430.8931417007
  0
LWPOLYLINE
  5
1F9
330
1F
100
AcDbEntity
  8
0
  6
Continuous
 62
     1
370
    25
100
AcDbPolyline
 90
       21
 70
   128
 43
0.0
 10
781.0120456217
 20
-564.1110308909
 10
780.7384089565
 20
-563.9658362114
 10
779.54033363
 20
-563.5806544211
 10
778.2051141233
 20
-563.5170461378
 10
776.7691717439
 20
-563.7767464296
 10
775.2716752568
 20
-564.3526713496
 10
773.7534724624
 20
-565.2291111672
 10
772.2559759753
 20
-566.3821588891
 10
770.8200335959
 20
-567.780362379
 10
769.4848140892
 20
-569.3855822906
 10
768.2867387627
 20
-571.1540324092
 10
767.2584879881
 20
-573.0374740257
 10
766.428109766
 20
-574.9845317624
 10
765.8182546498
 20
-576.9420949599
 10
765.4455578972
 20
-578.8567663972
 10
765.3201857042
 20
-580.6763188287
 10
765.4455578972
 20
-582.3511196071
 10
765.8182546498
 20
-583.8354845332
 10
766.428109766
 20
-585.0889240013
 10
767.2584879881
 20
-586.07724745
 10
768.0645248392
 20
-586.6575210403
  0
LWPOLYLINE
  5
1FA
330
1F
100
AcDbEntity
  8
0
  6
Continuous
 62
     1
370
    25
100
AcDbPolyline
 90
       21
 70
   128
 43
0.0
 10
883.5915974334
 20
-327.6125603818
 10
883.3179607682
 20
-327.4673657024
 10
882.1198854416
 20
-327.082183912
 10
880.7846659349
 20
-327.0185756287
 10
879.3487235556
 20
-327.2782759205
 10
877.8512270685
 20
-327.8542008405
 10
876.3330242741
 20
-328.7306406582
 10
874.835527787
 20
-329.88368838
 10
873.3995854076
 20
-331.2818918699
 10
872.0643659009
 20
-332.8871117815
 10
870.8662905744
 20
-334.6555619002
 10
869.8380397997
 20
-336.5390035166
 10
869.0076615777
 20
-338.4860612534
 10
868.3978064615
 20
-340.4436244509
 10
868.0251097089
 20
-342.3582958882
 10
867.8997375159
 20
-344.1778483196
 10
868.0251097089
 20
-345.8526490981
 10
868.3978064615
 20
-347.3370140242
 10
869.0076615777
 20
-348.5904534922
 10
869.8380397997
 20
-349.578776941
 10
870.6440766509
 20
-350.1590505312
  0
LWPOLYLINE
  5
1FB
330
1F
100
AcDbEntity
  8
0
  6
Continuous
 62
     1
370
    25
100
AcDbPolyline
 90
       21
 70
   128
 43
0.0
 10
717.4215038545
 20
-615.4276043141
 10
717.1478671893
 20
-615.2824096347
 10
715.9497918628
 20
-614.8972278444
 10
714.6145723561
 20
-614.833619561
 10
713.1786299767
 20
-615.0933198529
 10
711.6811334896
 20
-615.6692447728
 10
710.1629306952
 20
-616.5456845905
 10
708.6654342081
 20
-617.6987323123
 10
707.2294918287
 20
-619.0969358022
 10
705.8942723221
 20
-620.7021557139
 10
704.6961969955
 20
-622.4706058325
 10
703.6679462209
 20
-624.354047449
 10
702.8375679988
 20
-626.3011051857
 10
702.2277128826
 20
-628.2586683832
 10
701.85501613
 20
-630.1733398205
 10
701.729643937
 20
-631.9928922519
 10
701.85501613
 20
-633.6676930304
 10
702.2277128826
 20
-635.1520579565
 10
702.8375679988
 20
-636.4054974246
 10
703.6679462209
 20
-637.3938208733
 10
704.4739830721
 20
-637.9740944636
  0
LWPOLYLINE
  5
1FC
330
1F
100
AcDbEntity
  8
0
  6
Continuous
 62
     1
370
    25
100
AcDbPolyline
 90
       21
 70
   128
 43
0.0
 10
870.9426522276
 20
-261.4826304887
 10
870.6690155623
 20
-261.3374358093
 10
869.4709402358
 20
-260.9522540189
 10
868.1357207291
 20
-260.8886457356
 10
866.6997783497
 20
-261.1483460274
 10
865.2022818626
 20
-261.7242709474
 10
863.6840790682
 20
-262.6007107651
 10
862.1865825811
 20
-263.7537584869
 10
860.7506402017
 20
-265.1519619768
 10
859.4154206951
 20
-266.7571818884
 10
858.2173453685
 20
-268.5256320071
 10
857.1890945939
 20
-270.4090736235
 10
856.3587163718
 20
-272.3561313603
 10
855.7488612556
 20
-274.3136945578
 10
855.376164503
 20
-276.2283659951
 10
855.25079231
 20
-278.0479184265
 10
855.376164503
 20
-279.722719205
 10
855.7488612556
 20
-281.2070841311
 10
856.3587163718
 20
-282.4605235991
 10
857.1890945939
 20
-283.4488470479
 10
857.9951314451
 20
-284.0291206381
  0
LWPOLYLINE
  5
1FD
330
1F
100
AcDbEntity
  8
0
  6
Continuous
 62
     1
370
    25
100
AcDbPolyline
 90
       21
 70
   128
 43
0.0
 10
653.8309620874
 20
-637.531107625
 10
653.5573254221
 20
-637.3859129455
 10
652.3592500956
 20
-637.0007311552
 10
651.0240305889
 20
-636.9371228719
 10
649.5880882096
 20
-637.1968231637
 10
648.0905917224
 20
-637.7727480837
 10
646.572388928
 20
-638.6491879013
 10
645.0748924409
 20
-639.8022356232
 10
643.6389500616
 20
-641.2004391131
 10
642.3037305549
 20
-642.8056590247
 10
641.1056552283
 20
-644.5741091434
 10
640.0774044537
 20
-646.4575507598
 10
639.2470262316
 20
-648.4046084965
 10
638.6371711154
 20
-650.3621716941
 10
638.2644743629
 20
-652.2768431313
 10
638.1391021698
 20
-654.0963955628
 10
638.2644743629
 20
-655.7711963412
 10
638.6371711154
 20
-657.2555612673
 10
639.2470262316
 20
-658.5090007354
 10
640.0774044537
 20
-659.4973241842
 10
640.8834413049
 20
-660.0775977744
  0
LWPOLYLINE
  5
1FE
330
1F
100
AcDbEntity
  8
0
  6
Continuous
 62
     1
370
    25
100
AcDbPolyline
 90
       21
 70
   128
 43
0.0
 10
834.9215038546
 20
-220.0245442289
 10
834.6478671893
 20
-219.8793495495
 10
833.4497918628
 20
-219.4941677591
 10
832.1145723561
 20
-219.4305594758
 10
830.6786299768
 20
-219.6902597676
 10
829.1811334896
 20
-220.2661846876
 10
827.6629306952
 20
-221.1426245053
 10
826.1654342081
 20
-222.2956722271
 10
824.7294918288
 20
-223.693875717
 10
823.3942723221
 20
-225.2990956286
 10
822.1961969955
 20
-227.0675457473
 10
821.1679462209
 20
-228.9509873637
 10
820.3375679988
 20
-230.8980451005
 10
819.7277128826
 20
-232.855608298
 10
819.3550161301
 20
-234.7702797353
 10
819.229643937
 20
-236.5898321667
 10
819.3550161301
 20
-238.2646329452
 10
819.7277128826
 20
-239.7489978713
 10
820.3375679988
 20
-241.0024373393
 10
821.1679462209
 20
-241.9907607881
 10
821.9739830721
 20
-242.5710343783
  0
LWPOLYLINE
  5
1FF
330
1F
100
AcDbEntity
  8
0
  6
Continuous
 62
     1
370
    25
100
AcDbPolyline
 90
       21
 70
   128
 43
0.0
 10
599.9215038545
 20
-627.056482813
 10
599.6478671893
 20
-626.9112881336
 10
598.4497918628
 20
-626.5261063433
 10
597.1145723561
 20
-626.4624980599
 10
595.6786299767
 20
-626.7221983517
 10
594.1811334896
 20
-627.2981232717
 10
592.6629306952
 20
-628.1745630894
 10
591.1654342081
 20
-629.3276108112
 10
589.7294918287
 20
-630.7258143011
 10
588.394272322
 20
-632.3310342128
 10
587.1961969955
 20
-634.0994843314
 10
586.1679462209
 20
-635.9829259479
 10
585.3375679988
 20
-637.9299836846
 10
584.7277128826
 20
-639.8875468821
 10
584.35501613
 20
-641.8022183194
 10
584.229643937
 20
-643.6217707508
 10
584.35501613
 20
-645.2965715293
 10
584.7277128826
 20
-646.7809364554
 10
585.3375679988
 20
-648.0343759234
 10
586.1679462209
 20
-649.0226993722
 10
586.9739830721
 20
-649.6029729625
  0
LWPOLYLINE
  5
200
330
1F
100
AcDbEntity
  8
0
  6
Continuous
 62
     1
370
    25
100
AcDbPolyline
 90
       21
 70
   128
 43
0.0
 10
781.0120456218
 20
-209.549919417
 10
780.7384089565
 20
-209.4047247375
 10
779.54033363
 20
-209.0195429472
 10
778.2051141233
 20
-208.9559346639
 10
776.7691717439
 20
-209.2156349557
 10
775.2716752568
 20
-209.7915598757
 10
773.7534724624
 20
-210.6679996933
 10
772.2559759753
 20
-211.8210474152
 10
770.820033596
 20
-213.2192509051
 10
769.4848140893
 20
-214.8244708167
 10
768.2867387627
 20
-216.5929209353
 10
767.2584879881
 20
-218.4763625518
 10
766.428109766
 20
-220.4234202885
 10
765.8182546498
 20
-222.380983486
 10
765.4455578972
 20
-224.2956549233
 10
765.3201857042
 20
-226.1152073548
 10
765.4455578972
 20
-227.7900081332
 10
765.8182546498
 20
-229.2743730593
 10
766.428109766
 20
-230.5278125274
 10
767.2584879881
 20
-231.5161359761
 10
768.0645248393
 20
-232.0964095664
  0
LWPOLYLINE
  5
201
330
1F
100
AcDbEntity
  8
0
  6
Continuous
 62
     1
370
    25
100
AcDbPolyline
 90
       21
 70
   128
 43
0.0
 10
563.9003554816
 20
-585.5983965532
 10
563.6267188163
 20
-585.4532018738
 10
562.4286434898
 20
-585.0680200835
 10
561.0934239831
 20
-585.0044118001
 10
559.6574816038
 20
-585.2641120919
 10
558.1599851166
 20
-585.8400370119
 10
556.6417823222
 20
-586.7164768296
 10
555.1442858351
 20
-587.8695245514
 10
553.7083434558
 20
-589.2677280413
 10
552.3731239491
 20
-590.872947953
 10
551.1750486225
 20
-592.6413980716
 10
550.1467978479
 20
-594.5248396881
 10
549.3164196258
 20
-596.4718974248
 10
548.7065645096
 20
-598.4294606223
 10
548.3338677571
 20
-600.3441320596
 10
548.208495564
 20
-602.163684491
 10
548.3338677571
 20
-603.8384852695
 10
548.7065645096
 20
-605.3228501956
 10
549.3164196258
 20
-606.5762896636
 10
550.1467978479
 20
-607.5646131124
 10
550.9528346991
 20
-608.1448867027
  0
LWPOLYLINE
  5
202
330
1F
100
AcDbEntity
  8
0
  6
Continuous
 62
     1
370
    25
100
AcDbPolyline
 90
       21
 70
   128
 43
0.0
 10
717.4215038546
 20
-231.6534227278
 10
717.1478671893
 20
-231.5082280484
 10
715.9497918628
 20
-231.123046258
 10
714.6145723561
 20
-231.0594379747
 10
713.1786299768
 20
-231.3191382665
 10
711.6811334896
 20
-231.8950631865
 10
710.1629306952
 20
-232.7715030042
 10
708.6654342081
 20
-233.924550726
 10
707.2294918288
 20
-235.3227542159
 10
705.8942723221
 20
-236.9279741275
 10
704.6961969955
 20
-238.6964242462
 10
703.6679462209
 20
-240.5798658626
 10
702.8375679988
 20
-242.5269235993
 10
702.2277128826
 20
-244.4844867969
 10
701.8550161301
 20
-246.3991582342
 10
701.729643937
 20
-248.2187106656
 10
701.8550161301
 20
-249.893511444
 10
702.2277128826
 20
-251.3778763702
 10
702.8375679988
 20
-252.6313158382
 10
703.6679462209
 20
-253.619639287
 10
704.4739830721
 20
-254.1999128772
  0
LWPOLYLINE
  5
203
330
1F
100
AcDbEntity
  8
0
  6
Continuous
 62
     1
370
    25
100
AcDbPolyline
 90
       21
 70
   128
 43
0.0
 10
551.2514102757
 20
-519.4684666601
 10
550.9777736105
 20
-519.3232719807
 10
549.7796982839
 20
-518.9380901904
 10
548.4444787772
 20
-518.874481907
 10
547.0085363979
 20
-519.1341821988
 10
545.5110399108
 20
-519.7101071188
 10
543.9928371164
 20
-520.5865469365
 10
542.4953406292
 20
-521.7395946583
 10
541.0593982499
 20
-523.1377981482
 10
539.7241787432
 20
-524.7430180599
 10
538.5261034167
 20
-526.5114681785
 10
537.497852642
 20
-528.394909795
 10
536.66747442
 20
-530.3419675317
 10
536.0576193038
 20
-532.2995307292
 10
535.6849225512
 20
-534.2142021665
 10
535.5595503581
 20
-536.0337545979
 10
535.6849225512
 20
-537.7085553764
 10
536.0576193038
 20
-539.1929203025
 10
536.66747442
 20
-540.4463597705
 10
537.497852642
 20
-541.4346832193
 10
538.3038894932
 20
-542.0149568096
  0
LWPOLYLINE
  5
204
330
1F
100
AcDbEntity
  8
0
  6
Continuous
 62
     1
370
    25
100
AcDbPolyline
 90
       21
 70
   128
 43
0.0
 10
653.8309620874
 20
-282.9699961511
 10
653.5573254222
 20
-282.8248014716
 10
652.3592500956
 20
-282.4396196813
 10
651.0240305889
 20
-282.376011398
 10
649.5880882096
 20
-282.6357116898
 10
648.0905917225
 20
-283.2116366098
 10
646.572388928
 20
-284.0880764274
 10
645.0748924409
 20
-285.2411241493
 10
643.6389500616
 20
-286.6393276392
 10
642.3037305549
 20
-288.2445475508
 10
641.1056552284
 20
-290.0129976695
 10
640.0774044537
 20
-291.8964392859
 10
639.2470262317
 20
-293.8434970226
 10
638.6371711154
 20
-295.8010602202
 10
638.2644743629
 20
-297.7157316574
 10
638.1391021698
 20
-299.5352840889
 10
638.2644743629
 20
-301.2100848673
 10
638.6371711154
 20
-302.6944497934
 10
639.2470262317
 20
-303.9478892615
 10
640.0774044537
 20
-304.9362127103
 10
640.8834413049
 20
-305.5164863005
  0
LWPOLYLINE
  5
205
330
1F
100
AcDbEntity
  8
0
  6
Continuous
 62
     1
370
    25
100
AcDbPolyline
 90
       21
 70
   128
 43
0.0
 10
563.9003554816
 20
-438.7343754907
 10
563.6267188163
 20
-438.5891808112
 10
562.4286434898
 20
-438.2039990209
 10
561.0934239831
 20
-438.1403907376
 10
559.6574816038
 20
-438.4000910294
 10
558.1599851166
 20
-438.9760159494
 10
556.6417823222
 20
-439.852455767
 10
555.1442858351
 20
-441.0055034888
 10
553.7083434558
 20
-442.4037069788
 10
552.3731239491
 20
-444.0089268904
 10
551.1750486225
 20
-445.777377009
 10
550.1467978479
 20
-447.6608186255
 10
549.3164196258
 20
-449.6078763622
 10
548.7065645096
 20
-451.5654395597
 10
548.3338677571
 20
-453.480110997
 10
548.208495564
 20
-455.2996634285
 10
548.3338677571
 20
-456.9744642069
 10
548.7065645096
 20
-458.458829133
 10
549.3164196258
 20
-459.7122686011
 10
550.1467978479
 20
-460.7005920498
 10
550.9528346991
 20
-461.2808656401
  0
LWPOLYLINE
  5
206
330
1F
100
AcDbEntity
  8
0
  6
Continuous
 62
     1
370
    25
100
AcDbPolyline
 90
       21
 70
   128
 43
0.0
 10
599.9215038546
 20
-355.687156569
 10
599.6478671893
 20
-355.5419618896
 10
598.4497918628
 20
-355.1567800992
 10
597.1145723561
 20
-355.0931718159
 10
595.6786299767
 20
-355.3528721077
 10
594.1811334896
 20
-355.9287970277
 10
592.6629306952
 20
-356.8052368454
 10
591.1654342081
 20
-357.9582845672
 10
589.7294918288
 20
-359.3564880571
 10
588.3942723221
 20
-360.9617079687
 10
587.1961969955
 20
-362.7301580874
 10
586.1679462209
 20
-364.6135997038
 10
585.3375679988
 20
-366.5606574406
 10
584.7277128826
 20
-368.5182206381
 10
584.3550161301
 20
-370.4328920754
 10
584.229643937
 20
-372.2524445068
 10
584.3550161301
 20
-373.9272452853
 10
584.7277128826
 20
-375.4116102114
 10
585.3375679988
 20
-376.6650496794
 10
586.1679462209
 20
-377.6533731282
 10
586.9739830721
 20
-378.2336467184
  0
ENDSEC
  0
SECTION
  2
OBJECTS
  0
DICTIONARY
  5
C
330
0
100
AcDbDictionary
281
     1
  3
ACAD_GROUP
350
D
  3
ACAD_LAYOUT
350
1A
  3
ACAD_MLINESTYLE
350
17
  3
ACAD_PLOTSETTINGS
350
19
  3
ACAD_PLOTSTYLENAME
350
E
  3
ACAD_SCALELIST
350
47
  3
DWGPROPS
350
207
  0
DICTIONARY
  5
D
102
{ACAD_REACTORS
330
C
102
}
330
C
100
AcDbDictionary
281
     1
  0
DICTIONARY
  5
1A
102
{ACAD_REACTORS
330
C
102
}
330
C
100
AcDbDictionary
281
     1
  3
Layout1
350
1E
  3
Layout2
350
26
  3
Model
350
22
  0
DICTIONARY
  5
17
102
{ACAD_REACTORS
330
C
102
}
330
C
100
AcDbDictionary
281
     1
  3
Standard
350
18
  0
DICTIONARY
  5
19
102
{ACAD_REACTORS
330
C
102
}
330
C
100
AcDbDictionary
281
     1
  0
ACDBDICTIONARYWDFLT
  5
E
102
{ACAD_REACTORS
330
C
102
}
330
C
100
AcDbDictionary
281
     1
  3
Normal
350
F
100
AcDbDictionaryWithDefault
340
F
  0
DICTIONARY
  5
47
102
{ACAD_REACTORS
330
C
102
}
330
C
100
AcDbDictionary
281
     1
  3
A0
350
48
  3
A1
350
49
  3
A2
350
4A
  3
A3
350
4B
  3
A4
350
4C
  3
A5
350
4D
  3
A6
350
4E
  3
A7
350
4F
  3
A8
350
50
  3
A9
350
51
  3
B0
350
52
  3
B1
350
53
  3
B2
350
54
  3
B3
350
55
  3
B4
350
56
  3
B5
350
57
  3
B6
350
58
  3
B7
350
59
  3
B8
350
5A
  3
B9
350
5B
  3
C0
350
5C
  3
C1
350
5D
  3
C2
350
5E
  3
C3
350
5F
  3
C4
350
60
  3
C5
350
61
  3
C6
350
62
  3
C7
350
63
  3
C8
350
64
  3
C9
350
65
  3
D0
350
66
  3
D1
350
67
  3
D2
350
68
  0
XRECORD
  5
207
102
{ACAD_REACTORS
330
C
102
}
330
C
100
AcDbXrecord
280
     1
  1
DWGPROPS COOKIE
  2

  3

  4

  6

  7

  8
b.kav
  9

300
=
301
=
302
=
303
=
304
=
305
=
306
=
307
=
308
=
309
=
 40
0.0
 41
2459741.467567639
 42
2459741.467570324
  1

 90
        0
  0
LAYOUT
  5
1E
102
{ACAD_REACTORS
330
1A
102
}
330
1A
100
AcDbPlotSettings
  1

  2
none_device
  4

  6

 40
0.0
 41
0.0
 42
0.0
 43
0.0
 44
0.0
 45
0.0
 46
0.0
 47
0.0
 48
0.0
 49
0.0
140
0.0
141
0.0
142
1.0
143
1.0
 70
   688
 72
     1
 73
     0
 74
     5
  7

 75
    16
147
1.0
148
0.0
149
0.0
100
AcDbLayout
  1
Layout1
 70
     1
 71
     1
 10
0.0
 20
0.0
 11
420.0
 21
297.0
 12
0.0
 22
0.0
 32
0.0
 14
1.0000000000E+20
 24
1.0000000000E+20
 34
1.0000000000E+20
 15
-1.0000000000E+20
 25
-1.0000000000E+20
 35
-1.0000000000E+20
146
0.0
 13
0.0
 23
0.0
 33
0.0
 16
1.0
 26
0.0
 36
0.0
 17
0.0
 27
1.0
 37
0.0
 76
     0
330
1B
  0
LAYOUT
  5
26
102
{ACAD_REACTORS
330
1A
102
}
330
1A
100
AcDbPlotSettings
  1

  2
none_device
  4

  6

 40
0.0
 41
0.0
 42
0.0
 43
0.0
 44
0.0
 45
0.0
 46
0.0
 47
0.0
 48
0.0
 49
0.0
140
0.0
141
0.0
142
1.0
143
1.0
 70
   688
 72
     1
 73
     0
 74
     5
  7

 75
    16
147
1.0
148
0.0
149
0.0
100
AcDbLayout
  1
Layout2
 70
     1
 71
     2
 10
0.0
 20
0.0
 11
0.0
 21
0.0
 12
0.0
 22
0.0
 32
0.0
 14
0.0
 24
0.0
 34
0.0
 15
0.0
 25
0.0
 35
0.0
146
0.0
 13
0.0
 23
0.0
 33
0.0
 16
1.0
 26
0.0
 36
0.0
 17
0.0
 27
1.0
 37
0.0
 76
     0
330
23
  0
LAYOUT
  5
22
102
{ACAD_REACTORS
330
1A
102
}
330
1A
100
AcDbPlotSettings
  1

  2
none_device
  4
Letter_(8.50_x_11.00_Inches)
  6

 40
6.35
 41
6.35
 42
6.35000508
 43
6.35000508
 44
215.9
 45
279.4
 46
0.0
 47
0.0
 48
0.0
 49
0.0
140
0.0
141
0.0
142
1.0
143
1.0
 70
  1712
 72
     1
 73
     0
 74
     0
  7

 75
     0
147
1.0
148
0.0
149
0.0
100
AcDbLayout
  1
Model
 70
     1
 71
     0
 10
0.0
 20
0.0
 11
279.4
 21
215.9
 12
0.0
 22
0.0
 32
0.0
 14
0.0
 24
0.0
 34
0.0
 15
279.4
 25
215.9
 35
0.0
146
0.0
 13
0.0
 23
0.0
 33
0.0
 16
1.0
 26
0.0
 36
0.0
 17
0.0
 27
1.0
 37
0.0
 76
     0
330
1F
331
29
  0
MLINESTYLE
  5
18
102
{ACAD_REACTORS
330
17
102
}
330
17
100
AcDbMlineStyle
  2
Standard
 70
     0
  3

 62
   256
 51
90.0
 52
90.0
 71
     2
 49
0.5
 62
   256
  6
BYLAYER
 49
-0.5
 62
   256
  6
BYLAYER
  0
ACDBPLACEHOLDER
  5
F
102
{ACAD_REACTORS
330
E
102
}
330
E
  0
SCALE
  5
48
102
{ACAD_REACTORS
330
47
102
}
330
47
100
AcDbScale
 70
     0
300
1:1
140
1.0
141
1.0
290
     1
  0
SCALE
  5
49
102
{ACAD_REACTORS
330
47
102
}
330
47
100
AcDbScale
 70
     0
300
1:2
140
1.0
141
2.0
290
     0
  0
SCALE
  5
4A
102
{ACAD_REACTORS
330
47
102
}
330
47
100
AcDbScale
 70
     0
300
1:4
140
1.0
141
4.0
290
     0
  0
SCALE
  5
4B
102
{ACAD_REACTORS
330
47
102
}
330
47
100
AcDbScale
 70
     0
300
1:5
140
1.0
141
5.0
290
     0
  0
SCALE
  5
4C
102
{ACAD_REACTORS
330
47
102
}
330
47
100
AcDbScale
 70
     0
300
1:8
140
1.0
141
8.0
290
     0
  0
SCALE
  5
4D
102
{ACAD_REACTORS
330
47
102
}
330
47
100
AcDbScale
 70
     0
300
1:10
140
1.0
141
10.0
290
     0
  0
SCALE
  5
4E
102
{ACAD_REACTORS
330
47
102
}
330
47
100
AcDbScale
 70
     0
300
1:16
140
1.0
141
16.0
290
     0
  0
SCALE
  5
4F
102
{ACAD_REACTORS
330
47
102
}
330
47
100
AcDbScale
 70
     0
300
1:20
140
1.0
141
20.0
290
     0
  0
SCALE
  5
50
102
{ACAD_REACTORS
330
47
102
}
330
47
100
AcDbScale
 70
     0
300
1:30
140
1.0
141
30.0
290
     0
  0
SCALE
  5
51
102
{ACAD_REACTORS
330
47
102
}
330
47
100
AcDbScale
 70
     0
300
1:40
140
1.0
141
40.0
290
     0
  0
SCALE
  5
52
102
{ACAD_REACTORS
330
47
102
}
330
47
100
AcDbScale
 70
     0
300
1:50
140
1.0
141
50.0
290
     0
  0
SCALE
  5
53
102
{ACAD_REACTORS
330
47
102
}
330
47
100
AcDbScale
 70
     0
300
1:100
140
1.0
141
100.0
290
     0
  0
SCALE
  5
54
102
{ACAD_REACTORS
330
47
102
}
330
47
100
AcDbScale
 70
     0
300
2:1
140
2.0
141
1.0
290
     0
  0
SCALE
  5
55
102
{ACAD_REACTORS
330
47
102
}
330
47
100
AcDbScale
 70
     0
300
4:1
140
4.0
141
1.0
290
     0
  0
SCALE
  5
56
102
{ACAD_REACTORS
330
47
102
}
330
47
100
AcDbScale
 70
     0
300
8:1
140
8.0
141
1.0
290
     0
  0
SCALE
  5
57
102
{ACAD_REACTORS
330
47
102
}
330
47
100
AcDbScale
 70
     0
300
10:1
140
10.0
141
1.0
290
     0
  0
SCALE
  5
58
102
{ACAD_REACTORS
330
47
102
}
330
47
100
AcDbScale
 70
     0
300
100:1
140
100.0
141
1.0
290
     0
  0
SCALE
  5
59
102
{ACAD_REACTORS
330
47
102
}
330
47
100
AcDbScale
 70
     0
300
1/128" = 1'-0"
140
0.0078125
141
12.0
290
     0
  0
SCALE
  5
5A
102
{ACAD_REACTORS
330
47
102
}
330
47
100
AcDbScale
 70
     0
300
1/64" = 1'-0"
140
0.015625
141
12.0
290
     0
  0
SCALE
  5
5B
102
{ACAD_REACTORS
330
47
102
}
330
47
100
AcDbScale
 70
     0
300
1/32" = 1'-0"
140
0.03125
141
12.0
290
     0
  0
SCALE
  5
5C
102
{ACAD_REACTORS
330
47
102
}
330
47
100
AcDbScale
 70
     0
300
1/16" = 1'-0"
140
0.0625
141
12.0
290
     0
  0
SCALE
  5
5D
102
{ACAD_REACTORS
330
47
102
}
330
47
100
AcDbScale
 70
     0
300
3/32" = 1'-0"
140
0.09375
141
12.0
290
     0
  0
SCALE
  5
5E
102
{ACAD_REACTORS
330
47
102
}
330
47
100
AcDbScale
 70
     0
300
1/8" = 1'-0"
140
0.125
141
12.0
290
     0
  0
SCALE
  5
5F
102
{ACAD_REACTORS
330
47
102
}
330
47
100
AcDbScale
 70
     0
300
3/16" = 1'-0"
140
0.1875
141
12.0
290
     0
  0
SCALE
  5
60
102
{ACAD_REACTORS
330
47
102
}
330
47
100
AcDbScale
 70
     0
300
1/4" = 1'-0"
140
0.25
141
12.0
290
     0
  0
SCALE
  5
61
102
{ACAD_REACTORS
330
47
102
}
330
47
100
AcDbScale
 70
     0
300
3/8" = 1'-0"
140
0.375
141
12.0
290
     0
  0
SCALE
  5
62
102
{ACAD_REACTORS
330
47
102
}
330
47
100
AcDbScale
 70
     0
300
1/2" = 1'-0"
140
0.5
141
12.0
290
     0
  0
SCALE
  5
63
102
{ACAD_REACTORS
330
47
102
}
330
47
100
AcDbScale
 70
     0
300
3/4" = 1'-0"
140
0.75
141
12.0
290
     0
  0
SCALE
  5
64
102
{ACAD_REACTORS
330
47
102
}
330
47
100
AcDbScale
 70
     0
300
1" = 1'-0"
140
1.0
141
12.0
290
     0
  0
SCALE
  5
65
102
{ACAD_REACTORS
330
47
102
}
330
47
100
AcDbScale
 70
     0
300
1-1/2" = 1'-0"
140
1.5
141
12.0
290
     0
  0
SCALE
  5
66
102
{ACAD_REACTORS
330
47
102
}
330
47
100
AcDbScale
 70
     0
300
3" = 1'-0"
140
3.0
141
12.0
290
     0
  0
SCALE
  5
67
102
{ACAD_REACTORS
330
47
102
}
330
47
100
AcDbScale
 70
     0
300
6" = 1'-0"
140
6.0
141
12.0
290
     0
  0
SCALE
  5
68
102
{ACAD_REACTORS
330
47
102
}
330
47
100
AcDbScale
 70
     0
300
1'-0" = 1'-0"
140
12.0
141
12.0
290
     0
  0
ENDSEC
  0
EOF
